Zacznij systematycznie uczyć się grać na gitarze razem ze stroną Moja nauka - będziesz miał/miała do niej dostęp po zalogowaniu się w serwisie

Wierny jak pies - Lady Pank

Dodał -a: michicybo,
Pochodzi z: http://gitara.org/
Data publikacji: 2004-10-22 11:31
 
Moja nauka


Ups, problem :-/
Zaloguj się Mój śpiewnik
Wstęp
Bas gra funkcje: e  C  G  A

gitara
---------------------------------------------------------------------------
---------------------------------------------------------------------------
----7--9------------------7--6--7--9---------------------------------------
--9-------7----------7--9--------------------------------------------------
------------10--7----------------------------------------------------------
---------------------------------------------------------------------------

Zwrotka
---------------------------------------------------------------------------
--------p-------p-------p-------5--5---x-x-x-x--3--3--x-x-x-x--5--5--x-x-x-
--9---9-\-7---9-\-7---9-\-7-----5--5---x-x-x-x--4--4--x-x-x-x--6--6--x-x-x-
--9---9-\-7---9-\-7---9-\-7-----5--5---x-x-x-x--5--5--x-x-x-x--7--7--x-x-x-
--7-----------------------7-----3--3---x-x-x-x--5--5--x-x-x-x--7--7--x-x-x-
------------------------------------------------3--3-----------5--5--------

Refren:
        G   h   e   A   C   D

Solo                                                                                    x2
---------------------------------------------------------------------------
-----10--12--13--12----10--------------10--12--13--12----10----------------
--12----------------12-----9--------12----------------12-------------------
---------------------------------------------------------------------------
---------------------------------------------------------------------------
---------------------------------------------------------------------------


----sl---------------------------------------------------------------------
--12-\-10--8--10----10--9--------------------------------------------------
------------------------------------------------------------------------sl-
---------------------------11--9---------------h--p----------------9-7--\9-
---------------------------------12--11--12--11-12-11--9--7----7-9---------
---------------------------------------------------------------------------

            sl                                                                           itd
----------\12---10--7---bend---7---bend---7--------------------------------
--sl---8---------------10\(12)-----10\(12)--10-9---9-10-12-13---12-10-8-12-
--\-9----------------------------------------------------------------------
---------------------------------------------------------------------------
---------------------------------------------------------------------------
---------------------------------------------------------------------------

Dodaj komentarz ...i/lub link do filmiku video

Zaloguj się do serwisu
Wszelkie materiały i wypowiedzi zamieszczone na www.chords.pl są własnością ich autorów.