Zacznij systematycznie uczyć się grać na gitarze razem ze stroną Moja nauka - będziesz miał/miała do niej dostęp po zalogowaniu się w serwisie

Hotel Polska - Lady Pank

Opracował -a: michicybo,
Pochodzi z: http://gitara.org/
Data publikacji: 2004-10-22 11:34
 
Moja nauka


Ups, problem :-/
Zaloguj się Mój śpiewnik


Wstęp

---------------------------------------------------------------------------
------5---------1----------------------------------------------------------
----5---5-----2---2--------0-----------------------------------------------
--7---------3------------4---4---------------------------------------------
-----------------------5---------------------------------------------------
---------------------------------------------------------------------------

Zwrotka                                 x3
-------------------------------------------------------------------1-------
------5---------1--------------------------------------------------1-------
----5---5-----2---2--------0--------------------5--7--5--4--2--0---2-------
--7---------3------------4---4-------------------------------------3-------
-----------------------5-------------------------------------------3-------
-------------------------------------------------------------------1-------

Refren
G                D              e         H              C               D              G
---3-----3---------------7--7---7------------------------------------------
---3-----3---7---7----8--8--8---7---7-----5-----------7---------3---3------
---4--x--4---7---7----9--9--9---8---8-----5----5--5---7--7--7---4---4------
---5--x--5---7---7----9-----9---9---9-----5----5--5---7--7--7---5---5------
---5--x------5---5----7-----7---9---9-----3----3--3---5--5--5---5---5------
---3----------------------------7---7---------------------------3----------



Zwrotka:

a  F  E
a  F  E
a  F  E   F     2x


Refren:

G  D  e  H
C  D  G        2x

Dodaj komentarz ...i/lub link do filmiku video

Zaloguj się do serwisu
Ostatnie komentarze
1.
ddaammiiaann11
2013-11-24 20:13
jakos dziwnie dodało to solo
2.
ddaammiiaann11
2013-11-24 20:11
to jest to drugie solo na koncu cos takiego;d E H 8 8 10 12 G 9 7 7 9 13 9 9 7 7 9 7 D 9 A E
3.
ddaammiiaann11
2013-11-24 20:04
mozesz rozpisac pierwsze solo;p??
Wszelkie materiały i wypowiedzi zamieszczone na www.chords.pl są własnością ich autorów.