Zacznij systematycznie uczyć się grać na gitarze razem ze stroną Moja nauka - będziesz miał/miała do niej dostęp po zalogowaniu się w serwisie

Babilon Disko Najt - Lady Pank

Opracował -a: LucasG,
Dodał -a: LucasG,
Redaktor: Tomek Pietrzkowski,
Pochodzi z: http://www.chords.pl
Data publikacji: 2009-08-20 23:06
 
Moja nauka


Ups, problem :-/
Zaloguj się Mój śpiewnik
h - hummer on
p - pull of

WSTĘP:

E|-----------------------------------3-----------3--------------|
H|-0h2p0-------------------------------3-------3----------------|
G|-------0h2p0---0-2---------------------5---5------------------| x2
D|-------------3-------------5-------------5-------------5------|
A|----------------------5s7--3--3-5-----------------5s7--3--3-5-|
E|----------------------3s5-----1-3-----------------3s5-----1-3-|

E|-------------------------|
H|-0h2p0-------------------|
G|-------0h2p0---0-2-------|
D|-------------3-----------|
A|-------------------------|
E|-------------------------|

ZWROTKA:

E|-------------------------------------------------------------------|
H|-------------------------------------------------------------------|
G|-------------------------------------------------------------------|
D|----------------5-5-5-5-5-5-5-5-5----------------------------------|
A|--7-7-7-7-5-5-5-3-3-3-3-3-3-3-3-3-3-3-3-3-3-3-3-3-5-5-5-5-5-5-5-5--|
E|--5-5-5-5-3-3-3-------------------1-1-1-1-1-1-1-1-3-3-3-3-3-3-3-3--|

W tle słychać pojedynczo bite akordy:
a G C F G

Oraz lekko przytłumione:

E|-------------------|
H|-------------------|
G|------------5------|
D|--7-7-7-7-5---7-5--|
A|-------------------|
E|-------------------|

REFREN:

     C  C  G  G  a  a  F  F    C  C  G  G
E|---3--3--3--3--5--5--8--8----3--3--3--3-----3-----------3---------|
H|---5--5--3--3--5--5--10-10---5--5--3--3-------3-------3-----------|
G|---5--5--4--4--5--5--10-10---5--5--4--4---------5---5-------------|
D|---5--5--5--5--7--7--10-10---5--5--5--5-----------5---------------|
A|---3--3--5--5--7--7--8--8----3--3--5--5---------------------------|
E|---3--3--3--3--5--5--8--8----3--3--3--3---------------------------|

W całym utworze przewijają się jeszcze pewne elementy,
które tu rozpisałem. Miłego grania :)

Dodaj komentarz ...i/lub link do filmiku video

Zaloguj się do serwisu
Wszelkie materiały i wypowiedzi zamieszczone na www.chords.pl są własnością ich autorów.