Zacznij systematycznie uczyć się grać na gitarze razem ze stroną Moja nauka - będziesz miał/miała do niej dostęp po zalogowaniu się w serwisie

Nie spoglądaj nigdy wstecz - Lady Pank

Dodał -a: michicybo,
Pochodzi z: http://gitara.org/
Data publikacji: 2004-12-03 23:02
 
Moja nauka


Ups, problem :-/
Zaloguj się Mój śpiewnik
wstęp                                           x4
--------------------------------------------------------------------------
----------------8---------------------------------------------------------
--9--7--9---------7---5--4------------------------------------------------
--9--7--9------------------7--5--7----------------------------------------
--7-----------------------------------------------------------------------
--------------------------------------------------------------------------

Zwrotka
  F                 C               G                a
--------------------------------------------------------------------------
--------------------------------------------------------------------------
-------------------5-5-5-5-5-5-5-5----------------------------------------
--3-3-3-3-3-3-3-3--5-5-5-5-5-5-5-5--5-5-5-5-5-5-5-5--7-7-7-7-7-7-7-7------
--3-3-3-3-3-3-3-3--3-3-3-3-3-3-3-3--5-5-5-5-5-5-5-5--7-7-7-7-7-7-7-7------
--1-1-1-1-1-1-1-1-------------------3-3-3-3-3-3-3-3--5-5-5-5-5-5-5-5------

za ostatnim razem gra się:
--------------------------------------------------------------------------
--------------------------------------------------------------------------
-------------------5-5-5-5-5-5-5-5--9-9-9-9-9-9-9-9-9-9-9-9-9-------------
--3-3-3-3-3-3-3-3--5-5-5-5-5-5-5-5--9-9-9-9-9-9-9-9-9-9-9-9-9-------------
--3-3-3-3-3-3-3-3--3-3-3-3-3-3-3-3--7-7-7-7-7-7-7-7-7-7-7-7-7-------------
--1-1-1-1-1-1-1-1---------------------------------------------------------

Refren
--------------------------------------------------------------------------
--------------------------------------------------------------------------
--9--7--9---------------------------9--7--9-------------------------------
--9--7--9----3--3-3---5--5-5---7----9--7--9----3--3-3---5--5-5---7--------
--7----------3--3-3---5--5-5---7----7----------3--3-3---5--5-5---7--------
-------------1--1-1---3--3-3---5---------------1--1-1---3--3-3---5--------

Dodaj komentarz ...i/lub link do filmiku video

Zaloguj się do serwisu
Wszelkie materiały i wypowiedzi zamieszczone na www.chords.pl są własnością ich autorów.