Zacznij systematycznie uczyć się grać na gitarze razem ze stroną Moja nauka - będziesz miał/miała do niej dostęp po zalogowaniu się w serwisie

Minus 10 w Rio - Lady Pank

Opracował -a: michicybo,
Pochodzi z: http://www.chords.pl
Data publikacji: 2004-12-30 00:23
 
Moja nauka


Ups, problem :-/
Zaloguj się Mój śpiewnik


Przez całą zwrotkę i refren gra się jeden riff

---------------------------------------------------------------------------
---------------------------------------------------------------------------
----p-----------p----------------------------------------------------------
--3---0-------3---0--------------------------------------------------------
--1---0---3---1---0---3----5----5--5---5-----------------------------------
----------1-----------1----3----3--3---3-----------------------------------


Przejście

Gitara
--1--1----------------------------1--1-------------------------------------
--1--1----------------------------1--1-------------------------------------
--3--3----------------------------3--3-------------------------------------
--3--3----------------------------3--3-------------------------------------
--1--1----------------------------1--1-------------------------------------
---------------------------------------------------------------------------

W tym samym czasie bas gra
---------------------------------------------------------------------------
---------------------------------------------------------------------------
---------------------------------------------------------------------------
---------------------------------------------------------------------------
----5----8----1----1--1---3-------5-----8-----1-----1--1----3--------------
---------------------------------------------------------------------------


Potem gitara gra:
                                x3
-----------------------------------------------------1---1-----------------
-----------------------------------------------------1---1-----------------
-----------------------------------------------------3---3-----------------
--7------------------3-----------7-------------------3---3-----------------
--5--------3---3-----1-----------5---------3---3-----1---1-----------------
-----------1---1---------------------------1---1---------------------------


Zwrotka, refren:

B  F  g


Przejście I:

B2  B2


Przejście II:

d  F F  B

d  F F  B2 B2 (za 4-tym razem)


Refren...
Dodał: michicybo, 2017-01-16 23:25
Opracowania video z komentarzy

Dodaj komentarz ...i/lub link do filmiku video

Zaloguj się do serwisu
Ostatnie komentarze
1.
rodzina123
2006-01-08 13:48
wydaje mi się , że zamiast pierwszego riffu e3a5 - powinien być jeszcze raz uderzony e1a3 , a dopiero potem trzy razy e3a5 ...
Wszelkie materiały i wypowiedzi zamieszczone na www.chords.pl są własnością ich autorów.