Zacznij systematycznie uczyć się grać na gitarze razem ze stroną Moja nauka - będziesz miał/miała do niej dostęp po zalogowaniu się w serwisie

Kupiłem sobie psa (tab) - Lady Pank

Opracował -a: Georgowski,
Dodał -a: Georgowski,
Redaktor: Seba,
Pochodzi z: http://www.chords.pl
Data publikacji: 2011-07-08 22:11
 
Moja nauka


Ups, problem :-/
Zaloguj się Mój śpiewnik
Kupiłem sobie psa
E tuning

 intro

|---0-0-0---0-0--0-0--0-----0-0-0---0-0-0-0--|
|---0-0-0---0-0--0-0--0-----0-0-0---0-0-0-0--|
|---4-6-6/7-7-7--6-6--4-----4-6-6/7-7-7-6-4--|
|--------------------------------------------|
|--------------------------------------------|
|--------------------------------------------|


  intro alternatywnie

|--0-0-0-0-0-0--0-0--0-----0-0-0---0-0-0-0-|
|--0-2-2/3-3-3--2-2--0-----0-2-2/3-3-3-2-0-|
|------------------------------------------|
|------------------------------------------|
|------------------------------------------|
|------------------------------------------|

  intro rhythm fills        main riff fill (najlepiej zagrać palcami)

|-------------|----------|------------------------|
|-------------|-------3--|------------------------|
|-------------|-------2--|--0-2-0--2h4p2-0--2-0---|
|-------2-----|-------0--|--0-0-0--0-----0--0-0---|
|-------2-----|--4p2-----|------------------------|
|--0h3--0-----|----------|------------------------|


  verse/solo główne rhythm

|-----------------------------------|
|-----------------------------------|
|-----------------------------------|
|-------2------2-2------------------|
|-------2------2-2---------7-5-0-2--|
|--0-0--0-0-0--0-0---0-3-0----------|


|-----------------------------------|
|-----------------------------------|
|-----------------------------------|
|-------2------2-2------------------|
|-------2------2-2------------------|
|--0-0--0-0-0--0-0---3-3-3-5-5-3~~--|


  verse 1 solo fills

|------------------------|---------------|----------12-----------|
|-----12----14-----------|---------------|--------12----15b18----|
|-----12----14--12h14-12-|--14b16--12----|--12b14----------------|
|--14----14--------------|---------------|-----------------------|
|------------------------|---------------|-----------------------|
|------------------------|---------------|-----------------------|


|------------------|----------------------|
|------------------|--15b16---------------|
|-12-12--12-12-12\-|--------12-14b15-12~~-|
|-12-12--12-12-12\-|----------------------|
|------------------|----------------------|
|------------------|----------------------|

(najlepiej zagrać palcami)
|---------5---------|------------------|-------------|
|--0-0-0-----0------|------------------|-------------|
|--0-4-6--6--6--4~~-|------------------|-12-12-14-12-|
|-------------------|--5/7~~~~-5-------|-12-12-14-12-|
|-------------------|-------------7~~--|-------------|
|-------------------|------------------|-------------|

  chorus

|--------------------------------------------------------|
|------3-------------------------------------------------|
|-2-2--2----0-0--2---------------2-0---------------------|
|-2-2--0----0-0--2----------2-2-------2-0---0-2----------|
|-0-0-------x-x--0---0-3-0--0-0-----------3-----3-0-0--3-|
|-----------3-3------------------------------------------|

|---------------------------------------------------|
|------3--------------------------------------------|
|-2-2--2----0-0--2---------------2-0------5-5~~-----|
|-2-2--0----0-0--2----------2-2-------2-0-5-5~~-----|
|-0-0-------x-x--0---0-3-0--0-0-----------3-3~~-----|
|-----------3-3-------------------------------------|

  interverse solo

|---------------------------12--------12----------------------------|
|---------------------15b17-----15b17----14b15r14-12------14b15-12~~|
|--------------14-16--------------------------------14-12-----------|
|--------14-16------------------------------------------------------|
|--14/16------------------------------------------------------------|
|-------------------------------------------------------------------|


  solo rhytm (zmiana tonacji)

|----------------------------|
|----------------------------|
|-----------------2-2-2-4-2--|
|--4-4-4--4-4--4--2-2-2-4-2--|
|--4-4-4--4-4--4--0-0-0-2-0--|
|--2-2-2--2-2--2-------------|


Legenda:

h - hammer on
p - pull off
/ - slide w góre
\ - slide w dół
b - podciągnięcie

Dodaj komentarz ...i/lub link do filmiku video

Zaloguj się do serwisu
Wszelkie materiały i wypowiedzi zamieszczone na www.chords.pl są własnością ich autorów.