Zacznij systematycznie uczyć się grać na gitarze razem ze stroną Moja nauka - będziesz miał/miała do niej dostęp po zalogowaniu się w serwisie

Tańcz, głupia tańcz (bas) - Lady Pank

Opracował -a: maziki1992,
Dodał -a: maziki1992,
Redaktor: Tomek Pietrzkowski,
Pochodzi z: http://www.chords.pl/
Data publikacji: 2019-11-04 09:55
 
Moja nauka


Ups, problem :-/
Zaloguj się Mój śpiewnik
Zwrotka:

Slajd na wejście struna A |-14/-|
G|---------------------|-----------------------|
D|---------------------|-----------------------|   x4
A|-2-------------------|-2--------------5-4-2--|
E|----5-3--3-5--5-5--3-|----5-3--3-5--5-------5|


Refren:

G|--7-----------------|--7-----------------|
D|------7-7--9---6-6--|------7-7----9-9----|
A|-5------------------|-5------------------|
E|---5---5--7-3---3---|---5---5--7-7-7-----|

G|--7-----------------|--7-----------------|
D|------7-7--9---6-6--|------7-7--9-9-9-9--|
A|-5------------------|-5------------------|
E|---5---5--7-3---3---|---5---5--7-7-7-7---|


Przejście:

G|--------------------|--------------------|
D|--------------------|------------77-7----|
A|------5--5----------|------5--5----------|
E|-3--3------5--5-5-4-|-3--3------5--5-54--|

G|--------------------|--------------------|
D|--------------------|--------------------|
A|------5--5----------|---------5--5-------|
E|-3--3------5--5-5-4-|----3--3------5-----|


Zwrotka x2
Refren
Przejście
Zwrotka x2
Refren bez wokalu
Przejście
Refren x2


Outro:


G|---------------------------------|---------------------------------|
D|---------------------------------|---------------------------------|
A|--222----------------------------|---------------------------------|
E|---------------------------------|----------------------------2--5-|

G|---------------------------------|---------------------------------|
D|---------------------------------|---------------------------------|
A|-2-2-2-2-2-2-2-2-2-2-2-4-5-4-2---|---------------------------------|
E|-------------------------------5-|-3-3-3-3-3-3-3-2--2-2--5--5-5----| do końca

Dodaj komentarz ...i/lub link do filmiku video

Zaloguj się do serwisu
Wszelkie materiały i wypowiedzi zamieszczone na www.chords.pl są własnością ich autorów.