Zacznij systematycznie uczyć się grać na gitarze razem ze stroną Moja nauka - będziesz miał/miała do niej dostęp po zalogowaniu się w serwisie

Du Du - Lady Pank

Opracował -a: michicybo,
Pochodzi z: http://gitara.org/
Data publikacji: 2004-09-19 20:01
 
Moja nauka


Ups, problem :-/
Zaloguj się Mój śpiewnik



Wstęp oraz zwrotka
------------------------------------------------------------------------
------------------------------------------------------------------------
------------------------------------------------------------------------
--------------------7----7--7-----7-\-9---11---9----9--9----9---9-\-7---
--5--5----5--5------5----5--5-----5-\-7---9----7----7--7----7---7-\-5---
--3--3----3--3----------------------------------------------------------

------------------------------------------------------------------------
------------------------------------------------------------------------
------------------------------------------------------------------------
-------------------7----7--7-----7-\-9---11--9---9--9-9--9---7-\-9-\-7--
--5--5----5--5-----5----5--5-----5-\-7---9---7---7--7-7--7---5-\-7-\-5--
--3--3----3--3----------------------------------------------------------

Refren
Gitara 1
C                       G                       e                       H
-0----------------3----------------------------------------------2---------
-1--1--1-------1--3------3--3-------0---------0--------3---3-----3---------
-0--0--0-------0--0---0--0--0--0----0---0-----0-----0--3---3--3--3-----3---
-2--2--2---2---2--0---0--0--0--0----2---2--2--2--2--2--3---3--3-----3--3---
-3--3--3---3---3--2---2--2--2--2----2---2--2--2--2--2--2---2--2-----2--2---
------------------3---3--------3----0------0--0-----0----------------------

Refren
Gitara 2
-------------------bend-----bend-------------------------------------------
------------------10-(12)--10-(12)-10--8---------------------7----7--7-----
-------------------------------------------------------------8----8--8-----
-------------------------------------------------------------9----9--9-----
---------------------------------------------------------------------------
---------------------------------------------------------------------------

solo

----bend--------------------bend-------------------------------------------
---10-(12)-(12)-(12)-(12)-10-(12)-10-8--10--10--10---8--10--12--8----------
-------------------------------------------------------------------9-------
---------------------------------------------------------------------------
---------------------------------------------------------------------------
---------------------------------------------------------------------------


----bend----15--15---------------------------------------------------------
---15-(17)----------15--17--15---------------------------------------------
---------------------------------------------------------------------------
---------------------------------------------------------------------------
---------------------------------------------------------------------------
---------------------------------------------------------------------------



Zwrotka:

G  D  e


Refren:

C  G
e  H

Dodaj komentarz ...i/lub link do filmiku video

Zaloguj się do serwisu
Ostatnie komentarze
1.
nex
2010-05-25 19:29
-----------------------------------------------12--12-12-----12------ --12-12-12-12-12----------------------12-----------------15-----15 -----------------14-12-14-14-14-12-14----12----------------------- --------------------------------------------14-------------------------- ------------------------------------------------------------------------ ------------------------------------------------------------------------- to chyba cos takiego
2.
Alan Janelt
2007-12-14 19:22
hej, czy te solo jest napewno poprawne???:S Wydaje mi sie jakies inne, ale moze to dlatego bo mam wersje live. Jak macie wersje solo live, to fajnie by bylo, jak by ktos mi to przeslal...
Wszelkie materiały i wypowiedzi zamieszczone na www.chords.pl są własnością ich autorów.