Zacznij systematycznie uczyć się grać na gitarze razem ze stroną Moja nauka - będziesz miał/miała do niej dostęp po zalogowaniu się w serwisie

Czy czujesz jak... - Lady Pank

Opracował -a: michicybo,
Pochodzi z: http://www.gitara.org/
Data publikacji: 2004-09-24 19:12
 
Moja nauka


Ups, problem :-/
Zaloguj się Mój śpiewnik


Wstęp:

---------------------------------------------------------------
---------------------------------------------------------------
---------------------------------------------------------------
--------3------2---0------------------------0------------------
--------------------------3------1------3---------3---1---0----
--3------------------------------------------------------------


Na poczatku grana jest solowka przez 16 taktow na funkcjach zwrotki
( gitara gra tak samo ).

Zwrotka
G                          C
                                        powtarza sie przez cala zwrotke
------------------------------------------------
------------------------------------------------
-------------------------------------3----------
--------------3----------------3h5---------5----
--------3h5---------5------3--------------------
--3---------------------------------------------


                                      x3                zatrzymanie
-|------------------------------------|----------------------
-|-1-------3-------0------------------|----1------3-------5--
-|-3-------5-------2-----------5----7-|----3------5-------7--
-|-3-------5-------2------/7----------|----3------5-------7--
-|-1-------3-------0------------------|----1------3-------5--
-|------------------------------------|----------------------


Refren
                                                powtarza sie przez caly refren
----------------------------------------------------------------------
----------------------------------------------------------------------
----------------------------------------------------------------------
----------------------------------------------------------------------
----------2---5---5---5----3---2---0---0---3---7---3---3---2----0-----
--3---3---------------------------------------------------------------



Zwrotka:

G  C  G  C


Przejście:
G
B2  C2  A2
B2  C2  A2
B2  C2  A2
B2  C2  D2


Refren:

G  C  a  C
G  C  a  C

Dodaj komentarz ...i/lub link do filmiku video

Zaloguj się do serwisu
Ostatnie komentarze
1.
michicybo
2006-05-13 16:21
no to zle bys zagral refren... Jest G C a C, a w zwrotce jest błąd na poczatku... powinno byc g7 C7 zamiast G C
2.
bubyr
2006-05-13 14:21
ref zagral bym: G,D,a,C
Wszelkie materiały i wypowiedzi zamieszczone na www.chords.pl są własnością ich autorów.