Zacznij systematycznie uczyć się grać na gitarze razem ze stroną Moja nauka - będziesz miał/miała do niej dostęp po zalogowaniu się w serwisie

Sztuka latania (tab) - Lady Pank

Opracowali: dasiobasik, michicybo,
Dodał -a: dasiobasik,
Pochodzi z: http://gitara.org/
Data publikacji: 2004-09-25 23:36, Poprawiono 2017-06-11 07:28
 
Moja nauka


Ups, problem :-/
Zaloguj się Mój śpiewnik


Wstęp
Gitara 1                                                                   x4
--------------------------------------------------------------------------
--------------------------------------------------------------------------
--4--3----4--6---4--4--3----4--3---4--4--3----3--3--3--1--6---------------
-------4-----------------4------------------------------------------------
--------------------------------------------------------------------------
--------------------------------------------------------------------------

Gitara 2  ( wstęp )                                                        x4
--------------------------------------------------------------------------
------------------------------------------------------------------------7-
---------------------------------------------------------------8--8--6--6-
--6--6-6-6--6-6-6-6--2--2-2-2--2-2-2-2--4--4-4-4--4-4-4-4---4--8--8--6--4-
--6--6-6-6--6-6-6-6--2--2-2-2--2-2-2-2--4--4-4-4--4-4-4-4---4--6--6--4----
--4--4-4-4--4-4-4-4--0--0-0-0--0-0-0-0--2--2-2-2--2-2-2-2---2-------------

Zwrotka
--------------------------------------------------------------------------
--------------------------------------------------------------------2-----
----------------------------------------------------------------3-----3---
--6--6-6-6--6-6-6-6--2--2-2-2--2-2-2-2--4--4-4-4--4-4-4-4-----4---4-----4-
--6--6-6-6--6-6-6-6--2--2-2-2--2-2-2-2--4--4-4-4--4-4-4-4-----------------
--4--4-4-4--4-4-4-4--0--0-0-0--0-0-0-0--2--2-2-2--2-2-2-2---2-------------

--------------------------------------------------------------------------
--------------------------------------------------------------------------
--------------------------------------------------------------------------
--6--6-6-6--6-6-6-6--2--2-2-2--2-2-2-2--4--4-4-4--4-4-4-4-----------------
--6--6-6-6--6-6-6-6--2--2-2-2--2-2-2-2--4--4-4-4--4-4-4-4-----------------
--4--4-4-4--4-4-4-4--0--0-0-0--0-0-0-0--2--2-2-2--2-2-2-2---2---2-4-2-6-2-

Refren
Gitara 1
--------------------------------------------------------------------------
--4-----------------------------------------------------------------------
----4--1------1--4--1-----------------------------------------------------
---------2--4---------4---------------------------------------------------
--------------------------------------------------------------------------
-------------------------2-4-2-6-2-7-6-4-2-4------------------------------
                                                                           x2
----------------------------sl----------sl--------------------------------
--4-------------------------\-4---------\-4-------------------------------
----4--1------1--4--1------------6-4-6------6-4-6-------------------------
---------2--4---------4----------------------------6----------------------
--------------------------------------------------------------------------
--------------------------------------------------------------------------


Zwrotka i refren:

gis   E   Fis

                       (wstęp)

G|-------------------------------------------|
D|-------------------------------------------|
A|-------------------------------77--5-3-----|
E|--4--444----0--000----2--222---------------|

         (zwrotki/solo)

G|---------------------------------------|
D|---------------------------------------|
A|-------------------------------1-4-1---|
E|--44444444--00000000--22222222--2-2-2--|

   (przejście) 3:14 do 3:27

G|-------------------------|
D|-------------------------|
A|----------------4--------|    2x
E|---4-000-2------222-4----|

Bass tab dodany przez użytkownika dasiobasik
Dodał: michicybo, 2014-08-13 22:12
Opracowania video z komentarzy

Dodaj komentarz ...i/lub link do filmiku video

Zaloguj się do serwisu
Ostatnie komentarze
1.
michicybo
2014-08-13 22:12
http://youtu.be/yn2J8GYxxsI
2.
fendek
2005-10-02 16:05
fajnie jakby ktoś rozpisał drugą część solówki
Wszelkie materiały i wypowiedzi zamieszczone na www.chords.pl są własnością ich autorów.