Zacznij systematycznie uczyć się grać na gitarze razem ze stroną Moja nauka - będziesz miał/miała do niej dostęp po zalogowaniu się w serwisie

Osobno - Lady Pank

Opracował -a: michicybo,
Pochodzi z: http://gitara.org/
Data publikacji: 2004-09-25 23:44
 
Moja nauka


Ups, problem :-/
Zaloguj się Mój śpiewnik
Wstęp:
                                        2x
------------------------------------------
------------------------------------------
--7-8-7-5------------------7-8-7-5--------
----------8-7------7---------------8-7----
---------------8-----8--5-----------------
------------------------------------------


Gitara rytmiczna i bass w czasie wstępu i zwrotek:

--------------------------------------------------------
--------------------------------------------------------
--------------------------------------------------------
--------------------------------------------------------
-------5-5----8-------8-8---------5-5----8-------8-8----
-3---3-----6----1---1-----1-3---3-----6----1---1-----1--



Zwrotka:
g     F


Refren:
d Dis   B     d     d Dis   B      d
d Dis   B     d     d Dis   B      d
d Dis   B     d     g
Dodał: michicybo, 2016-05-04 21:06
Opracowania video z komentarzy

Dodaj komentarz ...i/lub link do filmiku video

Zaloguj się do serwisu
Ostatnie komentarze
1.
michicybo
2005-08-18 13:52
tak samo jak "On top" - od akordu fis zaczynac i wszystko nizej o pół tonu
Wszelkie materiały i wypowiedzi zamieszczone na www.chords.pl są własnością ich autorów.