Zacznij systematycznie uczyć się grać na gitarze razem ze stroną Moja nauka - będziesz miał/miała do niej dostęp po zalogowaniu się w serwisie

Spokój - Lea

Opracował -a: blackdalea666,
Dodał -a: blackdalea666,
Redaktor: Seba,
Pochodzi z: http://www.chords.pl/
Data publikacji: 2014-01-23 14:14
 
Moja nauka


Ups, problem :-/
Zaloguj się Mój śpiewnik


----0---0--3-5-3-0-3-0----0---0--3-5-3-0-3-0-3-5-7-8-7-5--7-8-7-5--0-3-0--
------0---------------------0---------------------------------------------
--------------------------------------------------------------------------
--------------------------------------------------------------------------
--------------------------------------------------------------------------
-0----------------------0-------------------------------------------------


----0---0---0---0--3-5-3-0-3-0-3-5-7-8-7-5-7-8-10-12-12-10----
------0-------0-----------------------------------------------
--------------------------------------------------------------
--------------------------------------------------------------
--------------------------------------------------------------
--0-------0---------------------------------------------------


-8-10-8-7-8-7-5-7-5-3-0-3-0-------------------------------------------
----------------------------------------------------------------------
----------------------------------------------h-a-v-e-----------------
------------------------------------------------f-u-n-----------------
----------------------------------------------------------------------
--------------------------0-------------------------------------------

Dodaj komentarz ...i/lub link do filmiku video

Zaloguj się do serwisu
Wszelkie materiały i wypowiedzi zamieszczone na www.chords.pl są własnością ich autorów.