Zacznij systematycznie uczyć się grać na gitarze razem ze stroną Moja nauka - będziesz miał/miała do niej dostęp po zalogowaniu się w serwisie

Imagine (tab) - John Lennon

Dodał -a: Piotr Okrój,
Redaktor: kefas,
Data publikacji: 2009-01-08 12:56, Poprawiono 2009-01-08 13:34
 
Moja nauka


Ups, problem :-/
Zaloguj się Mój śpiewnik


intro * 2

   C           Cmaj7        F
E|------------------------|--------------------------|
B|-------------------0----|------------------------0-|
G|-0-----0-----0-----0----|-2-----2-----2----2--3----|
D|-2-----2-----2----------|-3-----3-----3------------|
A|----3-----3-----3-----3-|----3-----3-----3---------|
E|-3-----3-----3-----3----|-1-----1-----1------------|

Imagine there's...
It's easy...

   C           Cmaj7        F
E|------------------------|--------------------------|
B|-------------------0----|------------------------0-|
G|-0-----0-----0-----0----|-2-----2-----2----2--3----|
D|-2-----2-----2----------|-3-----3-----3------------|
A|----3-----3-----3-----3-|----3-----3-----3---------|
E|-3-----3-----3-----3----|-1-----1-----1------------|


No hell...

   C           Cmaj7        F                          C           Cmaj7        F
E|------------------------|--------------------------|------------------------|------------------------|
B|-------------------0----|------------------------0-|-------------------0----|------------------------|
G|-0-----0-----0-----0----|-2-----2-----2----2--3----|-0-----0-----0-----0----|-2-----2-----2-----2----|
D|-2-----2-----2----------|-3-----3-----3------------|-2-----2-----2----------|-3-----3-----3-----3----|
A|----3-----3-----3-----3-|----3-----3-----3---------|----3-----3-----3-----3-|----3-----3-----3-----3-|
E|-3-----3-----3-----3----|-1-----1-----1------------|-3-----3-----3-----3----|-1-----1-----1-----1----|

Imagine all the people...

    F          a            d                        G                   G7
E|-------1-----------0----|-------1-----------1----|-------3--------3----1-|
B|-------1-----------1----|-------3-----------3----|-------0--------3----3-|
G|-------2--------2-------|----2--------------2----|-------0--------0------|
D|----------3--2--------2-|-0--------0-----0-------|----0--------0---------|
A|----3-------------------|-------------3--------3-|-2--------2------------|
E|-1----------------------|------------------------|-----------------------|

You may say...

   F           G            C           E7        F           G
E|------------------------|-------0-----------0-|------------------------|
B|-------1-----------0----|-------1-----------3-|-------1-----------0----|
G|-------2-----------0----|-------0-----------1-|-------2-----------0----|
D|-------3-----------0----|----2-----------2----|-------3-----------0----|
A|----3-----------2-------|-3--------3--2-------|----3-----------2-------|
E|-1--------1--3--------3-|---------------------|-1--------1--3--------3-|


       lacznik
   C
E|-0-------------------|
B|-1-------------------|
G|-0-----0-----0-----0-|
D|-2-------------------|
A|-3--------0-----2----|
E|----3----------------|

Dodaj komentarz ...i/lub link do filmiku video

Zaloguj się do serwisu
Wszelkie materiały i wypowiedzi zamieszczone na www.chords.pl są własnością ich autorów.