Zacznij systematycznie uczyć się grać na gitarze razem ze stroną Moja nauka - będziesz miał/miała do niej dostęp po zalogowaniu się w serwisie

Dwa Pięć Trzy - Line of Dead

Opracował -a: dexter88nh,
Dodał -a: dexter88nh,
Redaktor: Seba,
Pochodzi z: http://www.chords.pl/
Data publikacji: 2017-05-07 07:08
 
Moja nauka


Ups, problem :-/
Zaloguj się Mój śpiewnik


Wstęp 4x
A----------------------------------
D----------------------------------
F----------------------------------
C---7----7--3-------------------------
G---7----7--3----slide---------------------
C---7----7--3-------------------------

zwrotka 8x
 A----------------------------------
D----------------------------------
F----------------------------------
C-7-7-7-7-7-7-7-7-3-3-3-3-5-2-2-3------------------
G-7-7-7-7-7-7-7-7-3-3-3-3-5-2-2-3------------------
C-7-7-7-7-7-7-7-7-3-3-3-3-5-2-2-3------------------

 refren4x

A----------------------------------
D----------------------------------
F----------------------------------
C--------3-------3---0-------------------
G--------3-------3---0-------------------
C--------3-------3---0-------------------
Dodał: dexter88nh, 2017-05-07 07:09
Opracowania video z komentarzy

Dodaj komentarz ...i/lub link do filmiku video

Zaloguj się do serwisu
Wszelkie materiały i wypowiedzi zamieszczone na www.chords.pl są własnością ich autorów.