Zacznij systematycznie uczyć się grać na gitarze razem ze stroną Moja nauka - będziesz miał/miała do niej dostęp po zalogowaniu się w serwisie

Prawdziwe powietrze - Loka

Opracował -a: smolarek30,
Dodał -a: smolarek30,
Redaktor: SEBEK1304,
Pochodzi z: http://www.chords.pl
Data publikacji: 2012-06-02 08:15
 
Moja nauka


Ups, problem :-/
Zaloguj się Mój śpiewnik



Zwrotka:  e C H
          a H

Ref:      C G H e
          C G H

Solo:

E---------------------7--------------
H-----8-------------7----10-8-7-8----
G-/9----9-7---/7-8-----------------9-
D------------------------------------
A------------------------------------
E------------------------------------

--------------------------------------
-12-13-12--10h12p10-------------------
--------------------12-9--------------
--------------------------12-9--------
--------------------------------12-10-
--------------------------------------

------------------------------------------------------------|
------------------------------------------------------------|
------------------------------------------------------------|
----9X-12X-9X-12X-9X-12X-9X-12X-9X-12X-9X-12X-9X-12X--------|
-10X-------------------------------------------------12X-10-|
------------------------------------------------------------|

Miłego grania;)
Dodał: rafina, 2013-08-20 22:33
Opracowania video z komentarzy

Dodaj komentarz ...i/lub link do filmiku video

Zaloguj się do serwisu
Ostatnie komentarze
1.
miraqubasinska
2012-09-09 23:24
Moja propozycja to zagranie tego utworu w gamie C-dur: Zwrotka: a F E a F E d E Refren: F C E a F C E a
2.
03900
2012-08-15 20:22
Nie umiem powiedzieć tego, że wciąż.... - tuta trzeba dokładnie posłuchać jak chłopaki śpiewają i na co akcentują bo ciężko będzie zagrać. Reszta prosta.
Wszelkie materiały i wypowiedzi zamieszczone na www.chords.pl są własnością ich autorów.