Zacznij systematycznie uczyć się grać na gitarze razem ze stroną Moja nauka - będziesz miał/miała do niej dostęp po zalogowaniu się w serwisie

Run for your life (tab) - Loudness

Dodał -a: Seba,
Redaktor: Seba,
Pochodzi z: http://www.ultimate-guitar.com/
Data publikacji: 2015-03-22 12:07
 
Moja nauka


Ups, problem :-/
Zaloguj się Mój śpiewnik


Intro:

E1|-------------------------------------------------------------------
H|--------------------------------------------------------------------
G|---------7-6--------------------4-----------------------------------
D|-------9-----7----------------5----5---------------5--4-2-0--4-2-0--
A|-----9---------9-7-5-4------5--------5-3--2-------------------------
E6|--7-------------------5-3-------------------3--2-------------------

Verse:

h, A, e

Pre- Chorus:

E1|-----------------------
H|------------------------
G|------------------------
D|------------------------
A|---2--4-5-7-5-4-2--4-5--
E6|--0--2-3-5-3-2-0--2-3--

E1|---------10----9---10----9---10----9--
H|----------12---11---12---11---12---11--
G|----------12---11---12---11---12---11--
D|---------------------------------------
A|---5-4---------------------------------
E6|------5-------------------------------

Chorus:

E1|----------3------------5------------7----7-----9------
H|-------3-----3------5-----5------7-----7----7-----7----
G|-----4---4--------6---6--------7---7----------7-----7--
D|---5------------7------------9-------------------------
A|-------------------------------------------------------
E6|------------------------------------------------------

Dodaj komentarz ...i/lub link do filmiku video

Zaloguj się do serwisu
Wszelkie materiały i wypowiedzi zamieszczone na www.chords.pl są własnością ich autorów.