Zacznij systematycznie uczyć się grać na gitarze razem ze stroną Moja nauka - będziesz miał/miała do niej dostęp po zalogowaniu się w serwisie

Ballada gitarowa (tab) - Łukasz Chroń

Opracował -a: Łukasz Chroń,
Dodał -a: Łukasz Chroń,
Redaktor: SEBEK1304,
Pochodzi z: http://www.chords.pl/
Data publikacji: 2013-12-21 16:54
 
Moja nauka


Ups, problem :-/
Zaloguj się Mój śpiewnik


e--------------------------------------------------------------------------------------------------
B------------1-------------0-------------1-------------4----------------1-----------------0--------
G---------2-------------2-------------2-------------2----------------2-----2-----------2-----2-----
D------2-------------2-------------3-------------3----------------2-----------2-----2-----------2--
A---0-------------0-------------0-------------0----------------0-----------------0-----------------
E--------------------------------------------------------------------------------------------------


-------------------------------------------------
----------1-----------------4-----------0--------
-------2-----2-----------2-----2--------2--------
----3-----------3-----3-----------3-----2--------
-0-----------------0--------------------0--------
-------------------------------------------------

Dodaj komentarz ...i/lub link do filmiku video

Zaloguj się do serwisu
Wszelkie materiały i wypowiedzi zamieszczone na www.chords.pl są własnością ich autorów.