Zacznij systematycznie uczyć się grać na gitarze razem ze stroną Moja nauka - będziesz miał/miała do niej dostęp po zalogowaniu się w serwisie

Robaki (tab) - Luxtorpeda

Opracował -a: petlica,
Dodał -a: petlica,
Redaktor: petlica,
Pochodzi z: http://www.chords.pl
Data publikacji: 2012-09-04 08:40, Poprawiono 2012-09-13 08:53
 
Moja nauka


Ups, problem :-/
Zaloguj się Mój śpiewnik
Riff-A
                                                                                                     x2
D|-------------------------|-------------------------|-------------------------|-----------------------|
A|-------------------------|-------------------------|-------------------------|-----------------------|
F|-------------------------|-------------------------|-------------------------|-----------------------|
C|-6-4-0-7-6-0-6-4-0-9-7-0-|-6-4-0-7-6-0-6-4-0-4-2-0-|-6-4-0-7-6-0-6-4-0-9-7-0-|-6-4-0-7-6-0-----------|
G|-------------------------|-------------------------|-------------------------|-----------------------|
C|-------------------------|-------------------------|-------------------------|--------------0--0--0--|


  Guitar_1
D|-------------------------|-------------------------|-------------------------|-----------------------|
A|-------------------------|-------------------------|-------------------------|-----------------------|
F|-------------------------|-------------------------|-------------------------|-----------------------|
C|-6-4-0-7-6-0-6-4-0-9-7-0-|-6-4-0-7-6-0-6-4-0-4-2-0-|-6-4-0-7-6-0-6-4-0-7-6-0-|-9-7-0-11-9-0----------|
G|-------------------------|-------------------------|-------------------------|-----------------------|
C|-------------------------|-------------------------|-------------------------|---------------0--0--0-|
 |                         |                         |                         |                       |
 |Guitar_2                 |                         |                         |                       |
D|-------------------------|-------------------------|-------------------------|-----------------------|
A|-7---------7-------------|-10---------10-----------|-9----------9------------|-----------------------|
F|-7------------7----------|-10-------------10-------|-9-------------9---------|-9---------------------|
C|-7---------------7-------|-10-----------------10---|-9----------------9------|-9---------------------|
G|-5-----------------------|--8----------------------|-7-----------------------|-7---------------------|
C|-------------------------|-------------------------|-------------------------|---------------0--0--0-|


  Guitar_1
D|------------------------|-------------------------|--------------------------|-------------------------|
A|------------------------|-------------------------|--------------------------|-------------------------|
F|------------------------|-------------------------|--------------------------|-------------------------|
C-6-4-0-7-6-0-6-4-0-9-7-0-|-6-4-0-7-6-0-6-4-0-4-2-0-|-6-4-0-7-6-0-9-7-0-11-9-0-|-12-11-0-14-12-0---------|
G|------------------------|-------------------------|--------------------------|-----------------0--0--0-|
C|------------------------|-------------------------|--------------------------|-----------------0--0--0-|
 |                        |                         |                          |                         |
 |Guitar_2                |                         |                          |                         |
D|------------------------|-------------------------|--------------------------|-------------------------|
A|7---------7-------------|-10---------10-----------|-9-----------9------------|-------------------------|
F|7------------7----------|-10-------------10-------|-9--------------9---------|-9-----------------------|
C|7---------------7-------|-10-----------------10---|-9-----------------9------|-9-----------------------|
G|5-----------------------|--8----------------------|-7------------------------|-7-----------------------|
C|------------------------|-------------------------|--------------------------|-----------------0--0--0-|


 Riff-B
D|----------------|------------------|------------------|------------------|
A|----------------|------------------|------------------|------------------|
F|----------------|------------------|------------------|------------------|
C|---------7-7-7--|---------12-12-12-|---------12-12-12-|---------12-12-12-|
G|-0-0-0-0-3-3-3--|-0-0-0-0--8--8--8-|-0-0-0-0--9--9--9-|-0-0-0-0--8--8--8-|
C|-0-0-0-0-3-3-3--|-0-0-0-0--8--8--8-|-0-0-0-0--9--9--9-|-0-0-0-0--8--8--8-|
   pm.....          pm.....            pm.....            pm.....


Verse
D|-----------------|-----------------|-----------------|-----------------|
A|-----------------|-----------------|-----------------|-----------------|
F|-----------------|-----------------|-----------------|-----------------|
C|-----------------|-----------------|-----------------|-----------------|
G|-0-0-0-0--3-2-5--|-0-0-0-0--3-2-5--|-0-0-0-0--3-2-5--|-0-0-0-0--0-0-0--|
C|-----------------|-----------------|-----------------|-----------------|


D|-----------------|-----------------|-----------------|-----------------|
A|-----------------|-----------------|-----------------|-----------------|
F|-----------------|-----------------|-----------------|-----------------|
C|-----------------|-----------------|-----------------|-----------------|
G|-4-4-4-4--9-6-7--|-4-4-4-4--9-6-7--|-4-4-4-4--9-6-7--|-4-4-4-4--4-4-4--|
C|-----------------|-----------------|-----------------|-----------------|

Pre-Ref
D|-----------------|-----------------|-----------------|-----------------|
A|-7------7--------|-10-----10-------|-9-----9---------|-9------9--------|
F|-7--------7------|-10--------10----|-9-------9-------|-9--------9------|
C|-7----------7----|-10-----------10-|-9---------9-----|-9----------9----|
G|-5---------------|--8--------------|-7---------------|-7---------------|
C|-----------------|-----------------|-----------------|-----------------|


D|-----------------|-----------------|-----------------|-----------------|
A|-7------7--------|-10-----10-------|-9-----9---------|-/21-21-21-21----|
F|-7--------7------|-10--------10----|-9-------9-------|-/21-21-21-21----|
C|-7----------7----|-10-----------10-|-9---------9-----|-/21-21-21-21----|
G|-5---------------|--8--------------|-7---------------|-----------------|
C|-----------------|-----------------|-----------------|-----------------|


 Ref-Riff-B
D|----------------|------------------|------------------|------------------|
A|----------------|------------------|------------------|------------------|
F|----------------|------------------|------------------|------------------|
C|---------7-7-7--|---------12-12-12-|---------12-12-12-|---------12-12-12-|
G|-0-0-0-0-3-3-3--|-0-0-0-0--8--8--8-|-0-0-0-0--9--9--9-|-0-0-0-0--8--8--8-|
C|-0-0-0-0-3-3-3--|-0-0-0-0--8--8--8-|-0-0-0-0--9--9--9-|-0-0-0-0--8--8--8-|
   pm.....          pm.....            pm.....            pm.....


pozdr
petlica

Dodaj komentarz ...i/lub link do filmiku video

Zaloguj się do serwisu
Wszelkie materiały i wypowiedzi zamieszczone na www.chords.pl są własnością ich autorów.