Zacznij systematycznie uczyć się grać na gitarze razem ze stroną Moja nauka - będziesz miał/miała do niej dostęp po zalogowaniu się w serwisie

Amnestia (tab) - Luxtorpeda

Opracował -a: petlica,
Dodał -a: petlica,
Redaktor: petlica,
Pochodzi z: http://www.chords.pl
Data publikacji: 2012-09-05 09:06, Poprawiono 2012-09-13 08:50
 
Moja nauka


Ups, problem :-/
Zaloguj się Mój śpiewnik
Intro

D|---------------------------------|
A|---------------------------------|
F|---------------------------------|
C|10-0--------10-0-----10-10-0-----|
G|8--0-9-0-0--8--0-9-0-8--8--0-9-0-|
C|-----9-0-0-------9-0---------9-0-|

D|---------------------------------|---------------------------------|
A|---------------------------------|---------------------------------|
F|---------------------------------|---------------------------------|
C|---------------------------------|---------------------------------|
G|-5p0-------3p0-------------------|-5p0-------3p0-------------------|
C|-----6-0-0 ----5-0-0-0-0-2-1-0-3-|-----6-0-0 ----5-0-0-0-0-0-0-0-0-|
        pm.       pm.............          pm.       pm.............


D|------------------------|-------------------------|-------------------------|--------------------------|
A-------------------------|-------------------------|-------------------------|--------------------------|
F-------------------------|-------------------------|-------------------------|--------------------------|
C-----------------10-0----|-----------------10-0----|-----------------10-0----|------------------0--0--0-|
G-9-9-9-9-9-9-9-9--8-0----|-9-9-9-9-9-9-9-9--8-0----|-6-6-6-6-6-6-6-6--8-0----|-9-9-9-9-9-9-9-9--0--0--0-|
C-9-9-9-9-9-9-9-9------0--|-9-9-9-9-9-9-9-9------0--|-6-6-6-6-6-6-6-6------0--|-9-9-9-9-9-9-9-9--0--0--0-|

Refren
D|-------------------------------------------------------|
A|-----------------------0-----/------------0-------0----|
F|-12----/------7----/---4----/-----------3---3---2---2--|
C|-10---/-------4---/----5---/----------4-------3--------|
G|-12--/--------5--/-------------------------------------|
C|-------------------------------------------------------|
                                         pm.     pm..


D|------------------------------------|
A|------------------------------------|
F|------------------------------------|
C|------------------------------------|
G|-11-0--------11-0------11-11-0------|
C|------12-0-0------12-0---------12-0-|


                        x4
D|------------------0-----|----------------------------------|
A|------------------3-----|----------------------------------|
F|------------------2-----|-2-2-2/5-5-5-5/7-7-7-7/5-5-5-5/2--|
C|------------------0-----|-0-0-0---0-0-0---0-0-0---0-0-0----|
G|------------------0-----|----------------------------------|
C|-3-0-4----3-0-4-0-0-----|----------------------------------|



D|-----------------------------|
A|-----------------------------|
F|-----------------------------|
C|-----------------------------|
G|-8-0-------8-0-----8-8-0-----|
C|-----9-0-0-----9-0-------9-0-|



pozdr
petlica

Dodaj komentarz ...i/lub link do filmiku video

Zaloguj się do serwisu
Ostatnie komentarze
1.
petlica
2013-03-28 14:42
Sprawdziłem i będę obstawał jednak przy swoim. To właściwie te same dźwięki tylko dodają lekkie "drżenie" akordu. Pozdr
2.
csngng
2013-03-28 12:16
W refrenie zagrałbym tak: Refren: D|-------------------------------------------------------| A|-----------------------0-----/------------0-------0----| F|-12----/------7----/---4----/-----------3---3---2---2--| C|--x---/-------x---/----5---/----------4-------3--------| G|-10--/--------5--/-------------------------------------| C|-------------------------------------------------------| pm. pm..
3.
csngng
2013-03-17 14:03
Jeśli sam rozpisujesz te taby to "szacun". Musisz mieć ogromną cierpliwość i wytrwałość:) Dobra robota...
Wszelkie materiały i wypowiedzi zamieszczone na www.chords.pl są własnością ich autorów.