Zacznij systematycznie uczyć się grać na gitarze razem ze stroną Moja nauka - będziesz miał/miała do niej dostęp po zalogowaniu się w serwisie

Od zera (tab) - Luxtorpeda

Opracował -a: petlica,
Dodał -a: petlica,
Redaktor: petlica,
Pochodzi z: http://www.chords.pl
Data publikacji: 2012-09-13 08:56, Poprawiono 2012-09-14 08:30
 
Moja nauka


Ups, problem :-/
Zaloguj się Mój śpiewnik
 Intro - Riff A
D|-0-0-0-0-0-0-0-0-0-0-0--0--0--0--0--0--0---0--0--0--0--0--|
A|-8-8-8-7-7-7-8-8-8-7-8-/15-12-12-12-12-12-/15-11-11-11-12-|
F|----------------------------------------------------------|
C|----------------------------------------------------------|
G|----------------------------------------------------------|
D|----------------------------------------------------------|

  Riff B
D|------------------------|--------------------------|-------------------------|-------------------------|
A|------------------------|--------------------------|-------------------------|-------------------------|
F|------------------------|--------------------------|-------------------------|-------------------------|
C|------------------------|--------------------------|-------------------------|-------------------------|
G|------------------------|--------------------------|-------------------------|-------------------------|
D-7p0-0-7p0-0-7p0-8p0-5p0-|-7p0-0-7p0-0-7p0-8p0-10p0-|-7p0-0-7p0-0-7p0-8p0-5p0-|-0-0-0-0-0-0-0-0-0-0-0-0-|
                                                                                 pm......................

Verse
D|--------------------------------------------|------------------------------------------------|
A|--------------------------8---------8-------|------------------------------------------------|
F|-9----/--8----/--9----/--10b(12)---10b(12)~-|-9----/--8----/--9----/-------------------------|
C|-x---/---x---/---x---/----------------------|-x---/---x---/---x---/--------------------------|
G|-7--/----6--/----7--/-----------------------|-7--/----6--/----7--/---------------------------|
D|--------------------------------------------|------------------------0-0-0-0-0-0-0-0-0-0-0-0-|
                                                                       pm.....................


Ref - Riff A
   C                         E
D|-0-0-0-0-0-0-0-0-0-0-0--0--0--0--0--0--0---0--0--0--0--0--|
A|-8-8-8-7-7-7-8-8-8-7-8-/15-12-12-12-12-12-/15-11-11-11-12-|
F|----------------------------------------------------------|
C|----------------------------------------------------------|
G|----------------------------------------------------------|
D|----------------------------------------------------------|

  Solo Background
D|-----------------------|-----------------------|-----------------------|-----------------------|
A|-----------------------|-----------------------|-----------------------|-----------------------|
F|-----------------------|-----------------------|-----------------------|-----------------------|
C|-----------------------|-----------------------|-----------------------|-----------------------|
G|-----------------------|-----------------------|-----------------------|-----------------------|
D|-7-------/7-6-----2----|-7-------/7-6-----2----|-7-------/7-6-----2----|-7-------/7-6-----2----|



pozdr
petlica

Dodaj komentarz ...i/lub link do filmiku video

Zaloguj się do serwisu
Ostatnie komentarze
1.
csngng
2013-03-25 11:43
Ten główny motyw to ja bym zagrał tak. Łatwiej:) D|------------------------| A|------------------------| F|------------------------| C|------------------------| G|------------------------| D-7-0-0-7-0-0-7-0-8-0-5-0-| i.t.d. trochę mniej techniki a ciut więcej szybkości:)
Wszelkie materiały i wypowiedzi zamieszczone na www.chords.pl są własnością ich autorów.