Zacznij systematycznie uczyć się grać na gitarze razem ze stroną Moja nauka - będziesz miał/miała do niej dostęp po zalogowaniu się w serwisie

Iglo - Luxtorpeda

Opracował -a: petlica,
Dodał -a: petlica,
Redaktor: petlica,
Pochodzi z: http://www.chords.pl/
Data publikacji: 2018-09-20 20:26
 
Moja nauka


Ups, problem :-/
Zaloguj się Mój śpiewnik


Ilości zapisanych uderzeń powtórzeń trzeba traktować raczej poglądowo
pozdr
petlica

 Riff A (Refren)
C#|-------------------------------------------|-------------------------------------------|
G#|-------------------------------------------|-------------------------------------------|
E |-12-9---/---12-8---/---12-19---/--17---/---|-12-9---/---12-8---/---12-19---/--17---/---|
H |-10-9--/----12-8--/----12--x--/----x--/----|-10-9--/----12-8--/----12--x--/----x--/----|
F#|-10-7-/-----10-6-/-----10-17-/----15-/-----|-10-7-/-----10-6-/-----10-17-/----15-/-----|
H |-------------------------------------------|-------------------------------------------|


C#|-------------------------------------------|-------------------------------------------|
G#|-------------------------------------------|-------------------------------------------|
E |-12-14---/--9-8---/---12-19---/---17---/---|-12-14---/---13---/---12-19---/----17---/--|
H |-12-14--/---9-8--/----12-x---/-----x--/----|-12-14--/----13--/----12--x--/------x--/---|
F#|-10-12-/----7-6-/-----10-17-/-----15-/-----|-10-12-/-----11-/-----10-17-/------15-/----|
H |-------------------------------------------|-------------------------------------------|


C#|---------------------------------------------------|
G#|---------------------------------------------------|
E |-19-17-19-17-19-17-19-17-21-19-21-19-21-19-17-16---|
H |-x--x--x--x--x--x--x--x--x--x--x--x--x--x--x--x----|
F#|-17-15-17-15-17-15-17-15-19-17-19-17-19-17-15-14---|
H |---------------------------------------------------|
    Tutaj poglądowo bo tych uderzeń / powtórzeń jest więcej


   Riff B                                                       x3
C#|-------------------------------|-------------------------------|
G#|-------------------------------|-------------------------------|
E |-------------------------------|-------------------------------|
H |-------------------------------|-----------------0-0-0-0-0-0-0-|
F#|-9-----9---9---9-----9---9---5-|-8-----8---8---8-5-5-5-5-5-5-5-|
H |-0-0-0-0-0-0-0-0-0-0-0-0-0-0-0-|-0-0-0-0-0-0-0-0---------------|
                                                    bend----------
                                                    lekko podciagamy 5 strunę

C#|-------------------------------|------------------------------------------|
G#|-------------------------------|-------------------------------------0----|
E |-------------------------------|-------------------------------------0----|
H |-------------------------------|-------------------------------------0----|
F#|-9-----9---9---9-----9---9---5-|-8-----8---8---8-----10-9----9------------|
H |-0-0-0-0-0-0-0-0-0-0-0-0-0-0-0-|-0-0-0-0-0-0-0-0--12------12---10---------|
                                                    pm..............


   Verse 1                                                                  x4
C#|-------------------------------|------------------------------------------|
G#|-------------------------------|-------------------------------------0----|
E |-------------------------------|-------------------------------------0----|
H |-------------------------------|-------------------------------------0----|
F#|-9-----9---9---9-----9---9---5-|-8-----8---8---8-----10-9----9------------|
H |-0-0-0-0-0-0-0-0-0-0-0-0-0-0-0-|-0-0-0-0-0-0-0-0--12------12---10---------|
                                                    pm..............


  Riff A (Refren)


   Riff 2B
C#|-------------------------------|-------------------------------|
G#|-------------------------------|-------------------------------|
E |-------------------------------|-------------------------------|
H |-------------------------------|-------------------------------|
F#|-9-----9---9---9-----9---9---5-|-8-----8---8---8----7---6---5--|
H |-0-0-0-0-0-0-0-0-0-0-0-0-0-0-0-|-0-0-0-0-0-0-0-0--0-0-0-0-0-0--|
                                                    pm.............

C#|-------------------------------|-------------------------------|
G#|-------------------------------|-------------------------------|
E |-------------------------------|-------------------------------|
H |-------------------------------|-------------------------------|
F#|-9-----9---9---9-----9---9---5-|-8-----8---8---8---------------|
H |-0-0-0-0-0-0-0-0-0-0-0-0-0-0-0-|-0-0-0-0-0-0-0-0--15----------|
                                                     długi slide

   Verse 2
C#|-------------------------------|--------------------------------|
G#|-------------------------------|--------------------------------|
E |-------------------------------|--------------------------------|
H |-------------------------------|--------------------------------|
F#|-9-----9---9---9-----9---9---5-|-8-----8---8---8----------------|
H |-0-0-0-0-0-0-0-0-0-0-0-0-0-0-0-|-0-0-0-0-0-0-0-0--0-0-0-0-0-0-0-|
                                                    pm..............
                                                                 x2
C#|-------------------------------|--------------------------------|
G#|-------------------------------|--------------------------------|
E |-------------------------------|--------------------------------|
H |-3-----/-----------------------|-12---/--------10---/-----------|
F#|-3---/-------------------------|--8--/----------7--/------------|
H |-3-/---------------------------|--8-/-----------7-/-------------|


   Pre Ref
C#|-------------------------------|--------------------------------|
G#|-------------------------------|--------------------------------|
E |-------------------------------|--------------------------------|
H |-15-----/----------------------|-10-----/-----3-----------------|
F#|-12---/------------------------|--7---/-------3---/-------------|
H |-12-/--------------------------|--7-/---------3-/---3-3-3-3-3-3-|
                                                       pm..........


Refren

Interlude

   Guitar 1
C#|-------------------|------------------|------------------|------------------|
G#|-------------------|------------------|------------------|------------------|
E |-------------------|------------------|------------------|------------------|
H |-------------------|------------------|------------------|------------------|
F#|-12~------12-14-12-|-11~-----11-12-11-|-10~-----12-11-10-|-9~---------------|
H |-------------------|------------------|------------------|------------------|
                                                  pm........
   Guitar 2
C#|-------------------|------------------|------------------|------------------|
G#|-------------------|------------------|------------------|------------------|
E |-------------------|------------------|------------------|------------------|
H |-10~------10-12-10-|--9~------9-10-9--|--8~-----10--9--8-|-7~---------------|
F#|-------------------|------------------|------------------|------------------|
H |-------------------|------------------|------------------|------------------|
                                                  pm........




C#|----------------------------------|----------------------------------|
G#|----------------------------------|----------------------------------|
E |----------------------------------|----------------------------------|
H |----------------------------------|----------------------------------|
F#|-7~----10-6~---10--------------10-|-7~----10-6~---10--------------10-|
H |------------------10~----7~-------|------------------10~----7~-------|


C#|----------------------------------|----------------------------------|
G#|----------------------------------|----------------------------------|
E |----------------------------------|----------------------------------|
H |----------------------------------|----------------------------------|
F#|-12~----7-6~---10--------------10-|-12~----12-11~--10----------------|
H |-----------------10~----7~--------|-------------------10-------------|


  Podkład pod solo
C#|-------------------------------|--------------------------------|
G#|-------------------------------|--------------------------------|
E |-------------------------------|--------------------------------|
H |-------------------------------|--------------------------------|
F#|-9-----9---9---9-----9---9---5-|-8-----8---8---8----------------|
H |-0-0-0-0-0-0-0-0-0-0-0-0-0-0-0-|-0-0-0-0-0-0-0-0--0-0-0-0-0-0-0-|
                                                    pm..............
                                                                 x2
C#|-------------------------------|--------------------------------|
G#|-------------------------------|--------------------------------|
E |-------------------------------|--------------------------------|
H |-3---/-------------------------|-12---/--------10---/-----------|
F#|-3--/--------------------------|--8--/----------7--/------------|
H |-3-/---------------------------|--8-/-----------7-/-------------|


   Pre Ref
C#|-------------------------------|--------------------------------|
G#|-------------------------------|--------------------------------|
E |-------------------------------|--------------------------------|
H |-15-----/----------------------|-10-----/-----3-----------------|
F#|-12---/------------------------|--7---/-------3---/-------------|
H |-12-/--------------------------|--7-/---------3-/---3-3-3-3-3-3-|
                                                       pm..........

   Outro                                                                   x4
C#|-------------------------------|------------------------------------------|
G#|-------------------------------|-------------------------------------0----|
E |-------------------------------|-------------------------------------0----|
H |-------------------------------|-------------------------------------0----|
F#|-9-----9---9---9-----9---9---5-|-8-----8---8---8-----10-9----9------------|
H |-0-0-0-0-0-0-0-0-0-0-0-0-0-0-0-|-0-0-0-0-0-0-0-0--12------12---10---------|
                                                    pm..............

pozdr
petlica

Dodaj komentarz ...i/lub link do filmiku video

Zaloguj się do serwisu
Wszelkie materiały i wypowiedzi zamieszczone na www.chords.pl są własnością ich autorów.