Zacznij systematycznie uczyć się grać na gitarze razem ze stroną Moja nauka - będziesz miał/miała do niej dostęp po zalogowaniu się w serwisie

Pozdrawiamy - Luxtorpeda

Opracował -a: petlica,
Dodał -a: petlica,
Redaktor: petlica,
Pochodzi z: http://www.chords.pl/
Data publikacji: 2018-09-24 01:41
 
Moja nauka


Ups, problem :-/
Zaloguj się Mój śpiewnik
 Intro
C#|---------------------------|-------------------------|
G#|---------------------------|-------------------------|
E |---------------------------|-------------------------|
H |---------------------------|-------------------------|
F#|---------------------------|-------------------------|
H |---------------------------|-2-2-2-3-3-3-5-5-5-6-6-6-|

                           x3
C#|--------------------------|--------------------------|
G#|--------------------------|--------------------------|
E |--------------------------|--------------------------|
H |--------------------------|-3p0---0------------------|
F#|-------7h8---10h12---7h8--|-----5---5-3p0---0--------|
H |-0-0-0-----0-------0------|---------------5---5-3~---|


                           x3
C#|--------------------------|--------------------------------|
G#|--------------------------|--------------------------------|
E |--------------------------|--------------------------------|
H |--------------------------|-15p0----0----------------------|
F#|-------7h8---10h12---7h8--|------17---17-15p0----0---------|
H |-0-0-0-----0-------0------|-------------------17---17-15~--|


Verse
                           x3
C#|--------------------------|--------------------------|
G#|--------------------------|--------------------------|
E |--------------------------|--------------------------|
H |--------------------------|-3p0---0------------------|
F#|-------7h8---10h12---7h8--|-----5---5-3p0---0--------|
H |-0-0-0-----0-------0------|---------------5---5-3~---|



  Pre Ref
C#|-------------------------|-------------------------|
G#|-------------------------|-------------------------|
E |-------------------------|-------------------------|
H |-2------------2----------|-2-----------------------|
F#|-2------------2----------|-2----------3p0---0------|
H |-2---222-222--2--222-222-|-2--222-222-----5---5-3--|
        pm.....     pmm....      pm.....

C#|-------------------------|-------------------------|
G#|-------------------------|-------------------------|
E |-------------------------|-------------------------|
H |-2------------2----------|-------------------------|
F#|-2------------2----------|-------------------------|
H |-2---222-222--2--222-222-|-2-2-2-3-3-3-5-5-5-6-6-6-|
       pm......     pm.....


   Ref
C#|-----------------------|-------------------|
G#|-----------------------|-------------------|
E |----7--6/7---10-10-9---|-------------------|
H |----x--x-x----x--x-----|-5--5-3----8--8-7--|
F#|----5--4/5----8--8-7---|-5--5-3----8--8-7--|
H |-0---------------------|-5--5-3----8--8-7--|


C#|-----------------------|-------------------------------|
G#|-----------------------|-------------------------------|
E |----7--6/7---10-10-9---|-------------------------------|
H |----x--x-x----x--x-----|-------------------------------|
F#|----5--4/5----8--8-7---|-------------------------------|
H |-0---------------------|-3-3-3-5-5-5-6-6-6-8-8-8-6-6-5-|


Interlude

   Guitar 1&2
C#|-----------------------------------|-----------------------------------|
G#|-----------------------------------|-----------------------------------|
E |----------7~----------------8~-----|----------7~----------------6~-----|
H |-0-7-9-10------10-9-7-0-7-9----9~--|-0-5-7-8--------8-7-5-0-5-7----7~--|
F#|-----------------------------------|-----------------------------------|
H |-----------------------------------|-----------------------------------|
   pm.......      pm..........         pm......        pm.........
                                                                    x2
C#|-----------------------------------|-------------------------------|
G#|-----------------------------------|-------------------------------|
E |----------5~----------------4~-----|-------------------------------|
H |-0-3-5-6--------6-5-3-0-3-5----5~--|-------------------------------|
F#|-----------------------------------|-------------------------------|
H |-----------------------------------|-3-3-3-5-5-5-6-6-6-8-8-8--6--5-|
   pm......       pm..........


   Guitar 1
C#|--------------------------------------------|--------------------------------------------|
G#|--------------------------------------------|--------------------------------------------|
E |------------14~--------------------13~------|------------12~--------------------11~------|
H |-0-12-14-15-------15-14-12-0-12-14-----14~--|-0-10-12-13-------13-12-10-0-10-12-----12~--|
F#|--------------------------------------------|--------------------------------------------|
H |--------------------------------------------|--------------------------------------------|
  |pm....... .       pm..............          |pm....... .       pm..............          |
  |                                            |                                            |
  |Guitar 2                                    |                                            |
C#|--------------------------------------------|--------------------------------------------|
G#|--------------------------------------------|--------------------------------------------|
E |------------17~--------------------16~------|------------15~--------------------14~------|
H |-0-15-17-18-------18-17-15-0-15-17-----17~--|-0-13-15-16-------16-15-13-0-13-15-----15~--|
F#|--------------------------------------------|--------------------------------------------|
H |--------------------------------------------|--------------------------------------------|
   pm....... .       pm..............           pm....... .       pm..............



C#|--------------------------------------------|-------------------------------------|
G#|--------------------------------------------|-------------------------------------|
E |------------10~---------------------9~------|-------------------------------------|
H |-0--8-10-11-------11-10--8-0--8-10-----10~--|-------------------------------------|
F#|--------------------------------------------|-------------------------------------|
H |--------------------------------------------|--3--3--3--5--5--5--6--6--6--8--8--8-|
  |pm....... .       pm..............          |                                     |
  |                                            |                                     |
  |Guitar 2                                    |                                     |
C#|--------------------------------------------|-------------------------------------|
G#|--------------------------------------------|-------------------------------------|
E |------------13~--------------------12~------|-11-11-11-12-12-12-14-14-14-15~------|
H |-0-11-13-14-------14-13-11-0-11-13-----13~--|-------------------------------------|
F#|--------------------------------------------|-------------------------------------|
H |--------------------------------------------|-------------------------------------|
   pm....... .       pm..............


End
   Guitar 1
C#|--------------------------------------------|
G#|--------------------------------------------|
E |------------14~--------------------13~------|
H |-0-12-14-15-------15-14-12-0-12-14-----14~--|
F#|--------------------------------------------|
H |--------------------------------------------|
  |pm....... .       pm..............

Dodaj komentarz ...i/lub link do filmiku video

Zaloguj się do serwisu
Wszelkie materiały i wypowiedzi zamieszczone na www.chords.pl są własnością ich autorów.