Zacznij systematycznie uczyć się grać na gitarze razem ze stroną Moja nauka - będziesz miał/miała do niej dostęp po zalogowaniu się w serwisie

Księgowy - Luxtorpeda

Opracował -a: petlica,
Dodał -a: petlica,
Redaktor: petlica,
Pochodzi z: http://www.chords.pl/
Data publikacji: 2018-09-24 20:16
 
Moja nauka


Ups, problem :-/
Zaloguj się Mój śpiewnik
   Riff A
C#|------------------|------------------|
G#|------------------|------------------|
E |------------------|------------------|
H |-3-3-0-2----------|-3-3-0-2---4------|
F#|-3-3-0-2----------|-3-3-0-2---2------|
H |-3-3-0-2----------|-3-3-0-2-0--------|

   Riff B
C#|---------------------------------|
G#|---------------------------------|
E |---------------------------------|
H |---------------------------------|
F#|---3/2---23---3---3-----3---3h5-|
H |-0-3/2-0-23-0-3-0-3h5-0---0-----|
   pm    pm    pm  pm    pm  pm

   Riff C
C#|---------------|---------------|---------------|-----------------|
G#|---------------|---------------|---------------|-----------------|
E |---------------|---------------|---------------|-----------------|
H |---------------|---------------|---------------|-----------------|
F#|-6--6/5---56--|-6--6/5---56--|-6--6/5---56--|-6--6/5---8-89--|
H |-6--6/5-0-56--|-6--6/5-0-56--|-6--6/5-0-56--|-6--6/5-0-8-89--|
          pm              pm              pm              pm

   Riff 2A
C#|------------------|------------------|
G#|------------------|------------------|
E |------------------|------------------|
H |-3-3-0-2----------|-3-3-0-2---4------|
F#|-3-3-0-2----------|-3-3-0-2---4------|
H |-3-3-0-2----------|-3-3-0-2-0-4------|


   Riff D
C#|-9---------12---|-9--------------|
G#|----10--9-------|----10--9-------|
E |----------------|----------------|
H |----------------|----------------|
F#|----------------|----------------|
H |----------------|----------------|

   Riff 2B
C#|-------------------------------------------|
G#|-------------------------------------------|
E |-------------------------------------------|
H |-------------------------------------------|
F#|--------------------------------15---15h17-|
H |-0-15/14-0-1415-0-15-0-15h17-0----0-------|
   pm      pm      pm   pm      pm   pm


   End
C#|------------------|------------------|
G#|------------------|------------------|
E |------------------|------------------|
H |-3-3-0-2----------|-3--3--0--2-------|
F#|-3-3-0-2----------|-3--3--0--2-------|
H |-3-3-0-2----------|-3--3--0--2-------|

Dodaj komentarz ...i/lub link do filmiku video

Zaloguj się do serwisu
Wszelkie materiały i wypowiedzi zamieszczone na www.chords.pl są własnością ich autorów.