Zacznij systematycznie uczyć się grać na gitarze razem ze stroną Moja nauka - będziesz miał/miała do niej dostęp po zalogowaniu się w serwisie

Dziury po ospie - Luxtorpeda

Opracował -a: petlica,
Dodał -a: petlica,
Redaktor: petlica,
Pochodzi z: http://www.chords.pl/
Data publikacji: 2018-09-29 10:57
 
Moja nauka


Ups, problem :-/
Zaloguj się Mój śpiewnik


   Intro
   Git1
C#|------------0----------------|------------0--------------|
G#|---------------0-------------|---------------0-----------|
E |-6----6-----------6----------|-5----5-----------5--------|
H |-4-------4-------------------|-3-------3-----------------|
F#|-0---------------------0-0---|-0-------------------0-0---|
H |-0---------------------0-0-0-|-0-------------------0-0-0-|
                         pm....                      pm.....


   Git1
C#|------------0----------------|------------0--------------|
G#|---------------0-------------|---------------0-----------|
E |-18---18----------18---------|-17--17----------17--------|
H |-16------16------------------|-15-----15-----------------|
F#|--0--------------------0-0---|--0------------------0-0---|
H |--0--------------------0-0-0-|--0------------------0-0-0-|
                         pm....                      pm....


   Motyw 1
C#|------------------------------------------|-----------------------------------|
G#|------------------------------------------|-----------------------------------|
E |-18-18/14--14-14/11--11-11/14--14/16-14---|-12-12/14--14-14/17--17/19-17~-----|
H |--x--x--x---x--x--x---x--x--x---x--x--x---|--x--x--x---x--x--x---x--x--x------|
F#|-16-16/12--12-12/9----9--9/12--12/14-12---|-10-10/12--12-12/15--15/17-15~-----|
H |------------------------------------------|-----------------------------------|


C#|------------------------------------------|--------------------------------------|
G#|------------------------------------------|--------------------------------------|
E |-18-18/14--14-14/11--11-11/14--14/16-14---|-12-12/14--14-14/17--17/19-19/21-21---|
H |--x--x--x---x--x--x---x--x--x---x--x--x---|--x--x--x---x--x--x---x--x--x---------|
F#|-16-16/12--12-12/9----9--9/12--12/14-12---|-10-10/12--12-12/15--15/17-17/19-19~--|
H |------------------------------------------|--------------------------------------|



  Verse
   Git 1                                                                     x2
C#|-----------------------------------|-------------------------------------|
G#|-----------------------------------|-------------------------------------|
E |-----------------------------------|-------------------------------------|
H |-----5-7-7/8---------5-7-7/8-7-5-0-|-----1-3-3/5--------1-3-1--0h1p0---0-|
F#|---5---------------5---------------|---1--------------1--------------3---|
H |-5---------------5-----------------|-1--------------1--------------------|


C#|------------------------------------------|-----------------------------------|
G#|------------------------------------------|-----------------------------------|
E |-----------------------------8-7h8p7------|-----------------------------------|
H |-----8-10-10/12---------8-10---------10-8-|-----5-7-7/8---------5-7-7/8-7-5-0-|
F#|---8------------------8-------------------|---5---------------5---------------|
H |-8------------------8---------------------|-5---------------5-----------------|


C#|-----------------------------------|-----------------------------------------------|
G#|-----------------------------------|-----------------------------------------------|
E |-----------------------------------|-----------------------------------------------|
H |-----3-5-5/7---------3-5-5/7-------|-----5-7-7/8-----------------------------------|
F#|---3---------------3---------------|---5-----------5-5-5-5-3-3-3-3-2-2-2-2-1-1-1-1-|
H |-3---------------3-----------------|-5-------------5-5-5-5-3-3-3-3-2-2-2-2-1-1-1-1-|
                                                     pm...............................

Verse
   Git 2                                              x2
C#|---------------------------|-------------------------|
G#|-----10-------------10-----|-----6-----------6-------|
E |---7--------------7--------|---3-----------3---------|
H |-8--------------8----------|-5-----------5-----------|
F#|---------------------------|-------------------------|
H |---------------------------|-------------------------|


C#|---------------------------|-------------------------|
G#|-------13-------------13---|-----10----------10------|
E |----10-------------10------|---7-----------7---------|
H |-12-------------12---------|-8-----------8-----------|
F#|---------------------------|-------------------------|
H |---------------------------|-------------------------|


C#|---------------------------|--------------------------------------------|
G#|-----8--------------8------|-----10-------------------------------------|
E |---5--------------5--------|---7----------------------------------------|
H |-7--------------7----------|-8------------------------------------------|
F#|---------------------------|------------5-5-5-5-3-3-3-3-2-2-2-2-1-1-1-1-|
H |---------------------------|------------5-5-5-5-3-3-3-3-2-2-2-2-1-1-1-1-|
                                          pm...............................




C#|---------------------|---------------------|
G#|---------------------|---------------------|
E |---------------------|---------------------|
H |-5---/-----13---/----|-5---/-----13---/----|
F#|-5--/------13--/-----|-5--/------13--/-----|
H |-5-/-------13-/------|-5-/-------13-/------|


C#|---------------------|-------------------------------------------------|
G#|---------------------|-------------------------------------------------|
E |---------------------|-------------------------------------------------|
H |-8---/------5---/----|-3---/------5---/--------------------------------|
F#|-8--/-------5--/-----|-3--/-------5--/-5-5-5-5-3-3-3-3-2-2-2-2-1-1-1-1-|
H |-8-/--------5-/------|-3-/--------5-/--5-5-5-5-3-3-3-3-2-2-2-2-1-1-1-1-|
                                         pm...............................

Motyw 2A                                         x-razy
C#|-------------------------|-------------------------|
G#|-15-13-11-13-15-13-11-13-|-15-13-11-13-15-13-11-13-|
E |-------------------------|-------------------------|
H |-------------------------|-------------------------|
F#|-------------------------|-------------------------|
H |-------------------------|-------------------------|

C#|-------------------------|-------------------------|
G#|-15-13-11-13-11-10-11-10-|----10-------------------|
E |-------------------------|-12----12-10-12-10-9~----|
H |-------------------------|-------------------------|
F#|-------------------------|-------------------------|
H |-------------------------|-------------------------|


Motyw 2B                                         x-razy
C#|-------------------------|-------------------------|
G#|-------------------------|-------------------------|
E |-15-14-12-14-15-14-12-14-|-15-14-12-14-15-14-12-14-|
H |-------------------------|-------------------------|
F#|-------------------------|-------------------------|
H |-------------------------|-------------------------|

C#|-------------------------|-------------------------|
G#|-------------------------|-------------------------|
E |-15-14-12-14-12-10-12-10-|--9-10-9----9------------|
H |-------------------------|---------12---12-10~-----|
F#|-------------------------|-------------------------|
H |-------------------------|-------------------------|



   Riff A                                                     x4
C#|--------------------------------|----------------------------|
G#|--------------------------------|----------------------------|
E |--------------------------------|----------------------------|
H |--------------------------------|----------------------------|
F#|--------------------------------|--------------------6-------|
H |-8h10-10-10--8h10-10-10-8h10-10-|-8h10-10-10---7--8-----8--7-|

   Riff B                                      x3
C#|----------------------|-----------------------|
G#|----------------------|-----------------------|
E |----------------------|-----------------------|
H |----------------------|-----------------------|
F#|-3h5-5-5-3h5-5-5---5--|-3h5-5-5-3h5-5-5--3-0--|
H |-3h5-5-5-3h5-5-5-x-5--|-3h5-5-5-3h5-5-5--3-0--|


C#|----------------------|--------------------------|
G#|----------------------|--------------------------|
E |----------------------|--------------------------|
H |----------------------|--------------------------|
F#|-3h5-5-5-3h5-5-5---5--|--------------------------|
H |-3h5-5-5-3h5-5-5-x-5--|-5-5-5-5-5-5-6-6-6-6-7-7--|


   Riff C                                         x2
C#|------------------------|------------------------|
G#|------------------------|------------------------|
E |------------------------|------------------------|
H |------------------------|------------------------|
F#|------------------------|------------------------|
H |-5h7-7-7--5h7-7-7-5h7-7-|-5h7-7-7--5h7-7-7-5h7-7-|


   Riff A
C#|--------------------------------|----------------------------|
G#|--------------------------------|----------------------------|
E |--------------------------------|----------------------------|
H |--------------------------------|----------------------------|
F#|--------------------------------|--------------------6-------|
H |-8h10-10-10--8h10-10-10-8h10-10-|-8h10-10-10---7--8-----8--7-|


C#|--------------------------------|----------------------------|
G#|--------------------------------|----------------------------|
E |--------------------------------|----------------------------|
H |--------------------------------|----------------------------|
F#|--------------------------------|--------------------6-------|
H |-8h10-10-10--8h10-10-10-8h10-10-|-8h10-10-10---7--8-----8----|


C#|-------------|-------------|
G#|-------------|-------------|
E |-------------|-------------|
H |-------------|-----------8-|
F#|---------6---|---------6---|
H |-7---7-8---8-|-7---7-8-----|

   Riff D                         x3
C#|---------------------------------|
G#|---------------------------------|
E |---------------------------------|
H |-----------------------------8---|
F#|---6-----------6-----------6-----|
H |-8---8-7---7-8---8-7---7-8-------|




   Motyw 1
C#|------------------------------------------|-----------------------------------|
G#|------------------------------------------|-----------------------------------|
E |-18-18/14--14-14/11--11-11/14--14/16-14---|-12-12/14--14-14/17--17/19-17~-----|
H |--x--x--x---x--x--x---x--x--x---x--x--x---|--x--x--x---x--x--x---x--x--x------|
F#|-16-16/12--12-12/9----9--9/12--12/14-12---|-10-10/12--12-12/15--15/17-15~-----|
H |------------------------------------------|-----------------------------------|


C#|------------------------------------------|--------------------------------------|
G#|------------------------------------------|--------------------------------------|
E |-18-18/14--14-14/11--11-11/14--14/16-14---|-12-12/14--14-14/17--17/19-19/21-21---|
H |--x--x--x---x--x--x---x--x--x---x--x--x---|--x--x--x---x--x--x---x--x--x---------|
F#|-16-16/12--12-12/9----9--9/12--12/14-12---|-10-10/12--12-12/15--15/17-17/19-19~--|
H |------------------------------------------|--------------------------------------|


Spokojniejsza partia pod motywem 1

C#|---------0---------------|---------0---------------|
G#|-------0---0-------------|-------0---0-------------|
E |-----6-------6-----------|-----5-------5-----------|
H |---4-----------4---------|---3-----------3---------|
F#|-------------------------|-------------------------|
H |-0-----------------------|-0-----------------------|

Dodaj komentarz ...i/lub link do filmiku video

Zaloguj się do serwisu
Wszelkie materiały i wypowiedzi zamieszczone na www.chords.pl są własnością ich autorów.