Zacznij systematycznie uczyć się grać na gitarze razem ze stroną Moja nauka - będziesz miał/miała do niej dostęp po zalogowaniu się w serwisie

Siódme - Luxtorpeda

Opracował -a: petlica,
Dodał -a: petlica,
Redaktor: petlica,
Pochodzi z: http://www.chords.pl/
Data publikacji: 2018-10-01 20:41
 
Moja nauka


Ups, problem :-/
Zaloguj się Mój śpiewnik


stój drop-D


Intro
   Git_1
E|--------------------------------|--------------------------------|
H|--------------------------------|--------------------------------|
G|--------------------------------|--------------------------------|
D|--8-----/--------------/--------|-10-----/-------------/---------|
A|--8---/--------------/----------|-10---/-------------/-----------|
D|--8-/--------------/------------|-10-/-------------/-------------|
 |                                |                                |
 |Git_2                           |                                |
E|--------------------------------|--------------------------------|
H|--------------------------------|--------------------------------|
G|-10/12-12-12-10--10/12-12-12-10-|-10/12-12-12-10--10/12-12-12-10-|
D|--x-----x--x--x---x-----x--x--x-|--x-----x--x--x---x-----x--x--x-|
A|--8/10-10-10--8---8/10-10-10--8-|--8/10-10-10--8---8/10-10-10--8-|
D|--------------------------------|--------------------------------|



Riff A

   Git_1                                                    x4
E|---------------------------|--------------------------------||---------------------|
H|---------------------------|--------------------------------||---------------------|
G|---------------------------|--------------------------------||---------------------|
D|-3p0-----------------------|-8---/-----------10---/---------||-7----------------7--|
A|-----5-0-5p3p0---0---------|-8--/------------10--/----------||-5----------------5--|
D|---------------5----3---5~-|-8-/-------------10-/-----------||---------------------|
 |                           |                                ||                     |
 |Git_2                      |                                ||                     |
E|---------------------------|--------------------------------||---------------------|
H|-3-------------------------|--------------------------------||---------------------|
G|-2-------------------------|-10/12-12-12-10--10/12-12-12-10-||-10/12-12-12-10------|
D|-0-------------------------|--x-----x--x--x---x-----x--x--x-||--x-----x--x--x------|
A|-0-------------------------|--8/10-10-10--8---8/10-10-10--8-||--8/10-10-10--8------|
D|---------------------------|--------------------------------||---------------------|



Riff B - Verse

E|-------------------------------------------|
H|-------------------------------------------|
G|-------------------------------------------|
D|-7-----------------------------------------|
A|-5--9h10p9--7--9h10p9--9--9h10p9--7-7--7-5-|
D|------------7----------9----------5-5--5-5-|


Riff C - Refren

E|---------------------|---------------------------|
H|---------------------|---------------------------|
G|---------------------|---------------------------|
D|-7--7----------------|---------------------------|
A|-5--5--9h10-10-10p9--|-9-7---/--------7-5--/-----|
D|---------------------|-7-5---/--------5-5--/-----|
 |                     |                           |
 |Git_2                |                           |
E|---------------------|---------------------------|
H|---------------------|---------------------------|
G|-11-9-7-9-----7------|---------------------------|
D|---------------------|---------------------------|
A|-9--7-5-7-----5------|-9-7---/--------7-5--/-----|
D|---------------------|-7-7---/--------5-5--/-----|


Riff D
E|------------------------------|
H|------------------------------|
G|------------------------------|
D|-7----------------------------|
A|-5------7-------9------5------|
D|--------7-------9------5------|

 solo
E|-------------------------------|-------------------------------|
H|-------------------------------|-------------------------------|
G|----11----14----11----11-------|-------11----14----11----------|
D|-12----12----12----12----14-12-|-11-12----12----12----14-12-11-|
A|-------------------------------|-------------------------------|
D|-------------------------------|-------------------------------|


E|-------------------------------|-------------------------------|
H|-------------------------------|-------------------------------|
G|----11----14----11----14-------|----11----14----11-------------|
D|-12----12----12----12----12-11-|-12----12----12----12-12-16---|
A|-------------------------------|-------------------------------|
D|-------------------------------|-------------------------------|


E|-------------------------------|-------------------------------|
H|-------------------------------|-------------------------------|
G|-11--/---12--/---14-/---16--/--|-11--/---12--/-----------------|
D|-12-/----14-/----16/----17-/---|-12-/----14-/------------------|
A|-------------------------------|-------------------------------|
D|-------------------------------|------------------xxxxxx-|


Riff C

E|-----------------------|-------------------------|
H|-----------------------|-------------------------|
G|-----------------------|-------------------------|
D|-9--9------------------|-------------------------|
A|-7--7--11h12-120-12p11-|-11-9--/------9-7--/-----|
D|-----------------------|--9-9-/-------7-7--/-----|
 |                       |                         |
 |Git_2                  |                         |
E|-----------------------|-------------------------|
H|-----------------------|-------------------------|
G|-----------------------|-------------------------|
D|-18-16-14--16--14~-----|-------------------------|
A|-----------------------|-9-7---/--------7-5--/---|
D|-----------------------|-7-7---/--------5-5--/---|

End
E|-----------------------|
H|-----------------------|
G|-9---9---9/------------|
D|-9---9---9/------------|
A|-7---7---7/------------|
D|-----------------------|

Dodaj komentarz ...i/lub link do filmiku video

Zaloguj się do serwisu
Wszelkie materiały i wypowiedzi zamieszczone na www.chords.pl są własnością ich autorów.