Zacznij systematycznie uczyć się grać na gitarze razem ze stroną Moja nauka - będziesz miał/miała do niej dostęp po zalogowaniu się w serwisie

Mazanic - Luxtorpeda

Opracował -a: petlica,
Dodał -a: petlica,
Redaktor: petlica,
Pochodzi z: http://www.chords.pl/
Data publikacji: 2018-10-13 23:20
 
Moja nauka


Ups, problem :-/
Zaloguj się Mój śpiewnik


   Intro / Riff A
C#|-------------------------|-------------------------|
G#|-------------------------|-------------------------|
E |-------------------------|-------------------------|
H |-------------------------|-------------------------|
F#|-------------------------|--------------------////-|
H |-------------------------|-------------------------|


C#|-------------------------|-------------------------|
G#|-------------------------|-------------------------|
E |-------------------------|-------------------------|
H |-------------------------|-------------------------|
F#|-10-12-10-12-10-12-10-12-|-10-12-10-12~------------|
H |-------------------------|-------------------------|


C#|-------------------------|----------------------------|
G#|-------------------------|----------------------------|
E |--------------11b12r11~--|-15-14-12-14-12-11-12-11----|
H |-----12b13r12------------|-------------------------13-|
F#|-/15---------------------|----------------------------|
H |-------------------------|----------------------------|


C#|-------------------------|--------------------------|
G#|-------------------------|--------------------------|
E |-------------------------|--------------------------|
H |--12~-----------------12-|-13~--(13)-(13)--------12-|
F#|----------------12-15----|-----------------12-15----|
H |-------------------------|--------------------------|


C#|-------------------------------|------------------------|---------|
G#|-------------------------------|------------------------|---------|
E |-------------------------------|------------------------|---------|
H |-13~--(13)--(13)---13-12----12-|------------------------|---------|
F#|-------------------------15----|-15-13-15-13-12-13-12-10|/13~-----|
H |-------------------------------|------------------------|---------|

   Riff B (Refren)                        x3
C#|------------------------|----------------|
G#|------------------------|----------------|
E |------------------------|----------------|
H |-10/12-12-12------------|-----------/----|
F#|--8/10-10-10-8/10-10-10-|-8-5---5--/-----|
H |-------------8/10-10-10-|-8-5---5-/------|

C#|------------------------|----------------|
G#|------------------------|----------------|
E |------------------------|----------------|
H |-10/12-12-12------------|----------------|
F#|--8/10-10-10-8/10-10-10-|-8---5---5---5--|
H |-------------8/10-10-10-|-8---5---5---5--|


   Riff C (Verse)                                     x3
C#|---------------------------|-------------------------|
G#|---------------------------|-------------------------|
E |---------------------------|-------------------------|
H |-4p0-0-0-0-0-0--4p0--------|-------------------------|
F#|--------------------6--5/6-|-3-3-3-3-3-3-6-6-6-8-8-8-|
H |---------------------------|-------------------------|

C#|---------------------------|-------------------------|
G#|---------------------------|-------------------------|
E |---------------------------|-------------------------|
H |-4p0-0-0-0-0-0--4p0--------|-------------------------|
F#|--------------------6--5/6-|-3-3-3-------------------|
H |---------------------------|-------5-5-5-3-3-3-8-8-8-|

   Riff D
C#|--------------------------------|----------------------------------------|
G#|--------------------------------|----------------------------------------|
E |--------------------------------|----------------------------------------|
H |--------------------------------|----------------------------------------|
F#|--------------------------------|----------------------------------------|
H |-5-3-5--8-5-8--10-8-10--12-10-8-|-13-12-10--12-10h12p10-8--10-8-5--8-5-3-|


   Riff E               x3
C#|-----------------------|-------------------------|
G#|-----------------------|-------------------------|
E |-----------------------|-------------------------|
H |-----------------------|-------------------------|
F#|-----------------------|-------------------------|
H |-0-0-0-13p0-0-0-0-10p0-|-0-0-0-13p0-0-0-0-15/----|


   Riff F                                               x4
C#|---------------------------|---------------------------|
G#|---------------------------|---------------------------|
E |------------------15-15-15-|------------------14-14-14-|
H |-------------------x--x--x-|-------------------x--x--x-|
F#|------------------13-13-13-|------------------12-12-12-|
H |-0-0-0-13p0-0-0-0----------|-0-0-0-13p0-0-0-0----------|


C#|----------------------------|---------------------------|
G#|----------------------------|---------------------------|
E |----------------------------|---------------------------|
H |----------------------------|---------------------------|
F#|----------------------------|---------------------------|
H |-0-0-14.5--12--0-0-14.5--12-|-0-0-14.5--12--0-0-14.5-12-|
        NH......      NH......       NH......      NH.....

   End
C#|----------------------|----------------|-----------------|----------------|
G#|----------------------|----------------|-----------------|----------------|
E |----------------------|----------------|-----------------|----------------|
H |-10--10--12-----------|----------------|-----------------|----------------|
F#|--8---8--10--8--8--10-|--5---5---5-----|--5---5---5---5--|--5---5---------|
H |-------------8--8--10-|--5---5---5-----|--5---5---5---5--|--5---5---------|

Dodaj komentarz ...i/lub link do filmiku video

Zaloguj się do serwisu
Wszelkie materiały i wypowiedzi zamieszczone na www.chords.pl są własnością ich autorów.