Zacznij systematycznie uczyć się grać na gitarze razem ze stroną Moja nauka - będziesz miał/miała do niej dostęp po zalogowaniu się w serwisie

Imago - Luxtorpeda

Opracował -a: petlica,
Dodał -a: petlica,
Redaktor: petlica,
Pochodzi z: http://www.chords.pl/
Data publikacji: 2018-10-15 06:41
 
Moja nauka


Ups, problem :-/
Zaloguj się Mój śpiewnik


 Intro / Riff A

   Git_1
C#|-------------------------|-------------------------|
G#|-------------------------|-------------------------|
E |----18----18----18----18-|----18----18----18----18-|
H |-16----16----16----16----|-16----16----16----16----|
F#|-------------------------|-------------------------|
H |-------------------------|-------------------------|

                                                    x3
C#|-------------------------|-------------------------|
G#|-------------------------|-------------------------|
E |----16----16----16----16-|----16----16----16----16-|
H |-14----14----14----14----|-14----14----14----14----|
F#|-------------------------|-------------------------|
H |-------------------------|-------------------------|


   Git_2        x2                     x2              x2              x2
C#|---------------|----------------------|---------------|---------------|
G#|---------------|----------------------|---------------|---------------|
E |-6-6-6-6-6-6-6-|-12-12-12-12-12-12-12-|-4-4-4-4-4-4-4-|-8-8-8-8-8-8-8-|
H |-4-4-4-4-4-4-4-|-10-10-10-10-10-10-10-|-2-2-2-2-2-2-2-|-6-6-6-6-6-6-6-|
F#|---------------|----------------------|---------------|---------------|
H |---------------|----------------------|---------------|---------------|


   Git_3
C#|-7----------|-7---------------|
G#|-----7------|-----7---12------|
E |------------|-----------------|
H |------------|-----------------|
F#|------------|-----------------|
H |------------|-----------------|
   NH............................



  Verse / Riff B

   Git_1
C#|------------0--------|------------0--------|
G#|-------0------0----0-|-------0------0----0-|
E |----18---18-----18---|----18---18-----18---|
H |-16------------------|-16------------------|
F#|---------------------|---------------------|
H |---------------------|---------------------|

                                            x3
C#|------------0--------|------------0--------|
G#|-------0------0----0-|-------0------0----0-|
E |----16---16-----16---|----16---16-----16---|
H |-14------------------|-14------------------|
F#|---------------------|---------------------|
H |---------------------|---------------------|

   Git_2          x2                      x2                x2                x2
C#|---------0-------|-------------0---------|---------0-------|---------0-------|
G#|-----------0-----|---------------0-------|-----------0-----|-----------0-----|
E |-----6-------6---|-------12--------12----|-----4-------4---|-----8-------8---|
H |-4-4---4-------4-|-10-10----10--------10-|-2-2---2-------2-|-6-6---6-------6-|
F#|-----------------|-----------------------|-----------------|-----------------|
H |-----------------|-----------------------|-----------------|-----------------|

   Riff C
C#|-----------------|-----------------|
G#|-----------------|-----------------|
E |-----------------|-----------------|
H |-----------------|-----------------|
F#|-1-2-1-2-1-2-1-2-|-1-2-1-2-1-2-1-2-|
H |-1-2-1-2-1-2-1-2-|-1-2-1-2-1-2-1-2-|

   Riff D                                   x4
C#|---------------------|---------------------|
G#|---------------------|---------------------|
E |---------------------|---------------------|
H |-8---/--9---/--9---/-|-8---/--9---/--9---/-|
F#|-6--/---6--/---7--/--|-6--/---6--/---7--/--|
H |-6-/----6-/----7-/---|-6-/----6-/----7-/---|

   Ref / Riff E
C#|---------------|---------------|---------------|---------------|
G#|---------------|---------------|---------------|---------------|
E |---------------|---------------|---------------|---------------|
H |-6---/----/----|-8---/----/----|-9---/----/----|-11---/----/---|
F#|-6--/----/-----|-4--/----/-----|-9--/----/-----|--7--/----/----|
H |-6-/----/------|-4-/----/------|-9-/----/------|--7-/----/-----|



   Riff F (druga gitara gra Riff D)
C#|-------------------------|----------------------|
G#|-11---/-11/12---/-12/14--|-16---14---12-11-9-7--|
E |--x--/---x-----/---------|--x---x-----x--x-x-x--|
H |--8-/----8/9--/----9/11--|-13---11----9--8-6-4--|
F#|-------------------------|----------------------|
H |-------------------------|----------------------|


   Riff G (w podkładzie Riff E)
C#|-14------------------------|-14----------------------|
G#|----12--12h14--9~----11-12-|----12--12h14--9~--11-12-|
E |---------------------------|-------------------------|
H |---------------------------|-------------------------|
F#|---------------------------|-------------------------|
H |---------------------------|-------------------------|


C#|-14------------14~---14-16-|-17-16h17p16-14-16-14h16p14----11-12-||-----------|
G#|----12--12h14--------------|----------------------------14-------||-12~-------|
E |---------------------------|-------------------------------------||-----------|
H |---------------------------|-------------------------------------||-----------|
F#|---------------------------|-------------------------------------||-----------|
H |---------------------------|-------------------------------------||-----------|


   Riff H
C#|-----------------|-----------------|
G#|-----------------|-----------------|
E |-----------------|-----------------|
H |-------1-----2-1-|-------1-----2-1-|
F#|-0-1-2-1-2-1-2-1-|-0-1-2-1-2-1-2-1-|
H |-0-1-2---2-1-----|-0-1-2---2-1-----|
   pm....  pm..      pm....  pm..

C#|-----------------|-----------------|
G#|-----------------|-----------------|
E |-----------------|-----------------|
H |-----------------|-----------------|
F#|-1-2-1-2-1-2-1-2-|-1-2-1-2-1-2-1-2-|
H |-1-2-1-2-1-2-1-2-|-1-2-1-2-1-2-1-2-|

   End
C#|------------0--------|
G#|-------0-------------|
E |----20---20----------|
H |-18------------------|
F#|---------------------|
H |---------------------|

Dodaj komentarz ...i/lub link do filmiku video

Zaloguj się do serwisu
Wszelkie materiały i wypowiedzi zamieszczone na www.chords.pl są własnością ich autorów.