Zacznij systematycznie uczyć się grać na gitarze razem ze stroną Moja nauka - będziesz miał/miała do niej dostęp po zalogowaniu się w serwisie

44 dni (tab) - Luxtorpeda

Opracował -a: petlica,
Dodał -a: petlica,
Redaktor: petlica,
Pochodzi z: http://www.chords.pl/
Data publikacji: 2018-10-16 22:01
 
Moja nauka


Ups, problem :-/
Zaloguj się Mój śpiewnik


   Intro
C#|------------------------------|----------------------------------|
G#|------------------------------|----------------------------------|
 E|-------------------0----------|----------------------------------|
 B|----------10-----------10-----|---------0--------------0---------|
F#|------12-------12----------12-|------5-----5--------7-----7------|
 B|-0----------------------------|-3---------------5----------------|


C#|------------------------------|----------------------------------|
G#|------------------------------|----------------------------------|
 E|-------------------0----------|----------------------------------|
 B|----------10-----------10-----|---------0--------------0---------|
F#|------12-------12----------12-|------5-----5--------7-----7------|
 B|-0----------------------------|-3---------------5-------------5--|


                                  x3
C#|-------------|-------------------||-5-----------------|
G#|-------------|-------------------||--3----------------|
E |-------------|-12-------14-------||---2---------------|
H |-------------|-------------------||----0--------------|
F#|-0-----------|-10-------12-------||-----0-------------|
H |-0-----------|-------------------||-------------------|


   Git 1                                                    x4
C#|-----------------------------|-----------------------------|
G#|-----------------------------|-----------------------------|
E |----------15-------15--------|-------14-----14----14-------|
H |-12~---------12-10-----10-12-|-12/15-----------17----------|
F#|-----------------------------|-----------------------------|
H |-----------------------------|-----------------------------|
  |                             |                             |
  |Git 2                        |                             |
C#|-----------------------------|-----------------------------|
G#|-----------------------------|-----------------------------|
E |-----------------------------|-----------------------------|
H |-8-------/------/------/-----|-0-----/-------/-------/-----|
F#|-8------/------/------/------|-0----/-------/-------/------|
H |-8-----/------/------/-------|-0---/-------/-------/-------|


   Git 1                                                                      x2
|---------|---------|---------|---------|---------|---------|---------|---------|
|---------|---------|---------|---------|---------|---------|---------|---------|
|---------|---------|---------|---------|---------|---------|---------|---------|
|19---/--/|17---/--/|15---/--/-14---/--/|10---/--/|12---/--/|15-/-14-/|14-/-12-/|
|15--/--/-|15--/--/-|12--/--/-|12--/--/-|-8--/--/-|-8--/--/-|12-/-12-/|10-/-10-/|
|15-/--/--|15-/--/--|12-/--/--|12-/--/--|-8-/--/--|-8-/--/--|12-/-12-/|10-/-10-/|
|         |         |         |         |         |         |         |         |
|Git 2    |         |         |         |         |         |         |         |
|---------|---------|---------|---------|---------|---------|---------|---------|
|---------|---------|---------|---------|---------|---------|---------|---------|
|---------|---------|---------|---------|---------|---------|---------|---------|
|3----/--/|3----/--/|0----/--/|0----/--/|8----/--/|8----/--/|0----/--/|10---/--/|
|3---/--/-|3---/--/-|0---/--/-|0---/--/-|8---/--/-|8---/--/-|0---/--/-|10--/--/-|
|3--/--/--|3--/--/--|0--/--/--|0--/--/--|8--/--/--|8--/--/--|0--/--/--|10-/--/--|



   Git 1                x2
C#|-----------|-----------|
G#|-----------|-----------|
E |-----------|-----------|
H |-12-/-10-/-|-15---/----|
F#|--8-/--8-/-|-12--/-----|
H |--8-/--8-/-|-12-/------|
  |           |           |
  |Git 2      |           |
C#|-----------|-----------|
G#|-----------|-----------|
E |-----------|-----------|
H |-8----/--/-|-12---/--/-|
F#|-8---/--/--|-12--/--/--|
H |-8--/--/---|-12-/--/---|

pozdr
petlica

Dodaj komentarz ...i/lub link do filmiku video

Zaloguj się do serwisu
Wszelkie materiały i wypowiedzi zamieszczone na www.chords.pl są własnością ich autorów.