Zacznij systematycznie uczyć się grać na gitarze razem ze stroną Moja nauka - będziesz miał/miała do niej dostęp po zalogowaniu się w serwisie

Manifest (Манифест) - Lyapis Trubetskoy (Ляпис Трубецкой)

Dodał -a: pirat21wieka,
Redaktor: Seba,
Data publikacji: 2014-03-28 14:53
 
Moja nauka


Ups, problem :-/
Zaloguj się Mój śpiewnik
WSTĘP (WOLNY)
     A       D       A                E       fis     D       E                A
E |-------|-------|----------------|-------|-------|-------|----------------|----------------||
B |--2----|--3----|--2--0----------|--0----|--2----|-------|----------------|-----------0----||
G |-------|-------|--------2-------|-------|-------|--2----|--4--2--1-------|--2-----2-------||
D |-------|-------|----------------|-------|-------|-------|----------------|-----2----------||
A |-------|-------|----------------|-------|-------|-------|----------------|----------------||
E |-------|-------|----------------|-------|-------|-------|----------------|----------------||


WSTĘP (SZYBKI)
     A        D             A           E        fis      D              E           A
E |----------------------|--------------------|-----------------------|----------------------|
B |--2-----2--3-----3----|--2--0-----2--0-----|--2-----2--------------|----------------------|
G |----------------------|--------2-----------|-----------2-----2-----|--4--2--1--4--2-------|
D |----------------------|--------------------|-----------------------|----------------------|
A |----------------------|--------------------|-----------------------|----------------------|
E |----------------------|--------------------|-----------------------|----------------------|


ZWROTKA
A   D
E   A
A   D
E   A D E

REFREN
A D A E
fis D E A

PRZEJŚCIE
A
D E
Dodał: pirat21wieka, 2014-03-28 14:53
Opracowania video z komentarzy

Dodaj komentarz ...i/lub link do filmiku video

Zaloguj się do serwisu
Wszelkie materiały i wypowiedzi zamieszczone na www.chords.pl są własnością ich autorów.