Zacznij systematycznie uczyć się grać na gitarze razem ze stroną Moja nauka - będziesz miał/miała do niej dostęp po zalogowaniu się w serwisie

Jestem jaka jestem - Łzy

Dodał -a: Tomek Pietrzkowski,
Pochodzi z: http://www.chords.pl
Data publikacji: 2004-09-08 23:14
 
Moja nauka


Ups, problem :-/
Zaloguj się Mój śpiewnik


Wstęp :

E|--10--7-7-10-7-10--8-7-8-7--7-8-10-8--7-8-10-8---|
H|-------------------------------------------------|
G|-------------------------------------------------|
D|-------------------------------------------------|
A|-------------------------------------------------|
E|-------------------------------------------------|

Wstęp graj pięć razy, potem

E|--10--7-7-10-7-10--8-7-8-7--7-8-10-8--7-8-10-8-7---|
H|---------------------------------------------------|
G|---------------------------------------------------|
D|---------------------------------------------------|
A|---------------------------------------------------|
E|---------------------------------------------------|

Zwrotka 1:
G                 C
Kolorowych snów...
G                 C
Nikt nie...
G                 C
Nie pamiętam...
G                 C
Nie pamiętam...
D              Em G C
I nie wiedzieć...
D             Em G C
Sama nie wiem...

Refren :
Em  C G
O_o_o jestem...
Em  C       G
O_o_o robię...
        Em       C G
Chociaż wstaję...
       Em       C G
Czasem nawet...

Solo :

E|--10--7-7-10-7-10--8-7-8-7--7-8-10-8--7-8-10-8---|
H|-------------------------------------------------|
G|-------------------------------------------------|
D|-------------------------------------------------|
A|-------------------------------------------------|
E|-------------------------------------------------|

E|--10--7-7-10-7-10--8-7-8-7--7-8-10-8--7-8-10-8-7---|
H|---------------------------------------------------|
G|---------------------------------------------------|
D|---------------------------------------------------|
A|---------------------------------------------------|
E|---------------------------------------------------|

Zwrotka 2:

Refren :

Solo bass:

E|-------------------------------|
H|-------------------------------|
G|-------------------------------|

Dodaj komentarz ...i/lub link do filmiku video

Zaloguj się do serwisu
Ostatnie komentarze
1.
gucus
2009-12-23 12:21
cała zwrotka jest tłumiona i miedzy G i C jest przejście przez D...
2.
kucyk_
2006-09-17 00:40
intro: E||--10-----10----10---8----8----8----|--7---8---10---8---7---8---10---8--| B||--------8-----8----8----8----8---8---|----8---8----8---8---8---8----8----| -----------------------------------|---------------------------------| |
3.
wilk83
2005-06-02 17:57
hmmmmmm ja solo na wstępie gram na 2 strunach naraz niechce mi się tego rozpisywac :P pozatym w zwrotce jak dobrze posluchac jest akord : G krotko D i odrazu C i pozniej znow krotko D
Wszelkie materiały i wypowiedzi zamieszczone na www.chords.pl są własnością ich autorów.