Zacznij systematycznie uczyć się grać na gitarze razem ze stroną Moja nauka - będziesz miał/miała do niej dostęp po zalogowaniu się w serwisie

Anioł (miłość to wieczna tęsknota) - Maanam

Opracowali: michicybo, rafalah,
Dodali: michicybo, rafalah,
Redaktor: Seba,
Pochodzi z: http://www.chords.pl/
Data publikacji: 2018-08-05 21:51
 
Moja nauka


Ups, problem :-/
Zaloguj się Mój śpiewnik


Intro:

e||-------------|-7----7--7----9--10-|-9-------------------|
h||-------7--10-|--------------------|---10------------10--|
g||-----7-------|--------------------|--------9--7---------|
D||---9---------|--------------------|--------------11-----|
A||-------------|--------------------|---------------------|
E||-------------|--------------------|---------------------|

                                  _______________________  ______
                                 | 1.                    || 2.
                                 |                       ||
---9--10--9----------------------|--7--------------------||--7---
-------------10---------------10-|----------------7--10--||------
-----------------9--7------9-----|-------------7---------||------
-----------------------11--------|----------9------------||------
---------------------------------|-----------------------||------
---------------------------------|-----------------------||------


h  A2  fis  E

Tab do intra dodany przez użytkownika rafalah
Dodał: michicybo, 2018-08-05 21:53
Opracowania video z komentarzy

Dodaj komentarz ...i/lub link do filmiku video

Zaloguj się do serwisu
Wszelkie materiały i wypowiedzi zamieszczone na www.chords.pl są własnością ich autorów.