Zacznij systematycznie uczyć się grać na gitarze razem ze stroną Moja nauka - będziesz miał/miała do niej dostęp po zalogowaniu się w serwisie

Dzieci malarzy - Natalia Przybysz

Opracował -a: scelecky,
Dodał -a: scelecky,
Redaktor: Tomek Pietrzkowski,
Pochodzi z: http://www.chords.pl/
Data publikacji: 2019-01-22 23:06
 
Moja nauka


Ups, problem :-/
Zaloguj się Mój śpiewnik
Potrzebne chwyty:
        E  f#   A    g#   H  c5#
e|------0--2----5----4----2--------------------------------------|
B|------0--2----5----4----4--------------------------------------|
G|------1--2----6----4----4--6-----------------------------------|
D|------2--4----7----6----4--6-----------------------------------|
A|------2--4----7----6----2--4-----------------------------------|
E|------0--2----5----4-------------------------------------------|

charakterystyczna melodyjka (dalej oznaczona jako w)
e|-2h4-2-0----|
B|---------2--|
G|------------|
D|------------|
A|------------|
E|------------|

Przejście między chwytami (dalej oznaczone jako i), opcjonalnie można użyć techniki slide
e|-----------|
B|-----------|
G|--6--8-----|
D|--4--6-----|
A|-----------|
E|-----------|

Wstęp:
w E w f# i A g# A/g# H

1 Zwrotka
w f# w E x2
i g# i h# i g# i H

Refren (to samo co wstęp tylko na końcu przed H jest f#)
w E w f# i A g# A/g# f# H

2 Zwrotka

Refren

Mostek
           c5#  h#    E  x4
e|--------------2-2---0----|
B|--------------2-2---0----|
G|---------6----2-2---0----|
D|-----4---6----4-4---2----|
A|-2h4---4-4----4-4---2----|
E|--------------2-2---0----|

Mostek ciąg dalszy ( część z wokalem)
f# E h h x8

Refren/Zakończenie
w E w f# i A g# A/g# f#
w E w f# i A g# A/g# f#

Dodatkowe informacje
- melodyjka (w) grana jest przez pół taktu, a chwyt po nim czyli E lub f# przez półtora taktu
- A/g# znaczy że oba chwyty zajmują pół taktu (normalnie trwają cały takt)
- w drugiej części mostka (tej z wokalem) warto dla osób bardziej zaawansowanych
  zamiast drugiego h dodać jakieś ozdobniki

Dodaj komentarz ...i/lub link do filmiku video

Zaloguj się do serwisu
Wszelkie materiały i wypowiedzi zamieszczone na www.chords.pl są własnością ich autorów.