Zacznij systematycznie uczyć się grać na gitarze razem ze stroną Moja nauka - będziesz miał/miała do niej dostęp po zalogowaniu się w serwisie

Diabeł z piekła - Nocny Kochanek

Opracował -a: marekm1,
Dodał -a: marekm1,
Redaktor: Seba,
Pochodzi z: http://www.chords.pl/
Data publikacji: 2017-02-19 20:37
 
Moja nauka


Ups, problem :-/
Zaloguj się Mój śpiewnik
Diabeł z piekła

Główny riff
E|---------------------------------------------|
B|.--------------------------------------------|
G|-------7-6-----------------------------------|
D|--5-5--7-6---5-5--8-7--5--2------------------|
A|--5-5--5-4---5-5--8-7--5--2------------------|
E|--3-3--------3-3--6-5--3--3------------------|

Zwrotka
E|---------------------------------------------|
B|.--------------------------------------------|
G|---------------------------------------------|
D|---------------------------------------------|
A|-------5-4-----------------------------------|
E|--3-3--------3-3--6-5-2----------------------|


Refren - "Jeszcze jeden wina łyk...."(końcówka może być skopana)
E|---------------------------------------------|
B|.---------------------------------.----------|
G|---------------------------------------------|
D|--5-7-8-10-12-10-----------------------------|
A|--5-7-8-10-12-10-----------------------------|
E|--3 5 6 8--10-8------------------------------|

Przejście
E|--------------------------------------------|
B|.-------------------------------------------|
G|--------------------------------------------|
D|--------------------------------------------|
A|----5-4---------------5-4-------------------|
E|--3-----3-6-3-5-6---3-----3-6-3-5-----------|

"Z kolegami z klasy...."
E|--------------------------------------------------|
B|.---------------------------------.---------------|
G|-----7-3------------------------------------------|
D|--5--7-3--5-8-7-5-4-------------------------------|
A|--5--5-4--5-8-7-5-4-------------------------------|
E|--3 ------3-6 5 3 2-------------------------------|

Dodaj komentarz ...i/lub link do filmiku video

Zaloguj się do serwisu
Wszelkie materiały i wypowiedzi zamieszczone na www.chords.pl są własnością ich autorów.