Zacznij systematycznie uczyć się grać na gitarze razem ze stroną Moja nauka - będziesz miał/miała do niej dostęp po zalogowaniu się w serwisie

Dziewczyna z kebabem - Nocny Kochanek

Opracował -a: cezi147,
Dodał -a: cezi147,
Redaktor: Tomek Pietrzkowski,
Pochodzi z: http://www.chords.pl/
Data publikacji: 2018-01-16 09:50
 
Moja nauka


Ups, problem :-/
Zaloguj się Mój śpiewnik


 Intro:
             ~~    ~~
 e|------------------------------------------------------------------------------------------
 B|--/10--8--7-------------------7--8/10--8--7-----------------7--8/10--8--7-----8/10--------
 G|-------------9--7----6--7--9-----------------9--7--6--7--9-----------------9--------------
 D|------------------------------------------------------------------------------------------
 A|------------------------------------------------------------------------------------------
 E|------------------------------------------------------------------------------------------

 e|------------------------------------------------------------------------------------------
 B|--8p7h8p7---------8/10--8------8/10--8--10/12--10--6/7--8/10--8/10--7/12--10--8--7--------
 G|-----------9--/7-----------/7-------------------------------------------------------------
 D|------------------------------------------------------------------------------------------
 A|------------------------------------------------------------------------------------------
 E|------------------------------------------------------------------------------------------

 TABY ŚCIĄGNIĘTE ZE SŁUCHU (jak będzie pozytywny odbiór to nagram film instruktażowy)
 Wszelkie opinie pozytywne jak i negatywne mile widziane w komentarzach 
 mam nadzieję że pomogą udoskonalić te oraz przyszłe moje rany.
Dodał: cezi147, 2018-01-16 09:52
Opracowania video z komentarzy

Dodaj komentarz ...i/lub link do filmiku video

Zaloguj się do serwisu
Wszelkie materiały i wypowiedzi zamieszczone na www.chords.pl są własnością ich autorów.