Zacznij systematycznie uczyć się grać na gitarze razem ze stroną Moja nauka - będziesz miał/miała do niej dostęp po zalogowaniu się w serwisie

Dziewczyna z kebabem (intro) - Nocny Kochanek

Opracował -a: bigos0709,
Dodał -a: bigos0709,
Redaktor: Tomek Pietrzkowski,
Data publikacji: 2018-12-02 19:50
 
Moja nauka


Ups, problem :-/
Zaloguj się Mój śpiewnik


Intro:
E----------------------------------------------------------------------
B----------------------------------------------------------------------
G----/14----12--11~-------------------------------11---12--11----------
D---------------------14--11~----12--11--12--14---------------14--11~-
A----------------------------------------------------------------------
E----------------------------------------------------------------------

E----------------------------------------------------------------------
B----------------------------------------------------------------------
G--------------------11---12--11--------12/14--12---11h12p11-----------
D--------11--12--14--------------- 14-------------------------14-------
A----14----------------------------------------------------------------
E----------------------------------------------------------------------

E--------------------------------------------------------------------------------------
B---------/14--12--------/15--14--15/17--15--1410/12--12~-------/17---15--14--12~--
G----/11--------------11---------------------------------------------------------------
D--------------------------------------------------------------------------------------
A--------------------------------------------------------------------------------------
E--------------------------------------------------------------------------------------
Dodał: bigos0709, 2018-12-02 19:50
Opracowania video z komentarzy

Dodaj komentarz ...i/lub link do filmiku video

Zaloguj się do serwisu
Wszelkie materiały i wypowiedzi zamieszczone na www.chords.pl są własnością ich autorów.