Zacznij systematycznie uczyć się grać na gitarze razem ze stroną Moja nauka - będziesz miał/miała do niej dostęp po zalogowaniu się w serwisie

Minerał Fiutta - Nocny Kochanek

Dodał -a: azpunk,
Redaktor: Tomek Pietrzkowski,
Data publikacji: 2019-02-03 16:43
 
Moja nauka


Ups, problem :-/
Zaloguj się Mój śpiewnik
D|--------|--------------------|--------|--------------------|--------|--------------------|
A|--------|--------------------|--------|--------------------|--------|--------------------|
F|-9------|-9-----9---7----9---|-9------|-9-----9---7----5---|-5------|-5-----5---7----5---|
C|-9------|-9-----9---7----9---|-9------|-9-----9---7----5---|-5------|-5-----5---7----5---|
G|-7------|-7-----7---5----7---|-7------|-7-----7---5----3---|-3------|-3-----3---5----3---|
D|--------|--------------------|--------|--------------------|--------|--------------------|


D|--------|-----------------------|----------------------|---------------------------------|
A|--------|-----------------------|----------------------|---------------------------------|
F|-5------|-7---7---7---7----7----|-9-------------9------|---------------------------------|
C|-5------|-5---5---5---4----7----|-9-------------9------|---------------------------------|
G|-3------|------------------5----|-7-------------7------|-----9---7---7---10--7---9---7---|
D|--------|-----------------------|-------0---0--------0-|-0-------------------------------|


D|-------------------|-----------------------|----------------------|--------------------------|
A|-------------------|-----8---8---8---7-----|----------------------|--------------------------|
F|-7-----------7-----|-----7---7---7---7---7-|-9-------------9------|--------------------------|
C|-7-----------7-----|---------------------7-|-9-------------9------|--------------------------|
G|-5---5---5---5---5-|-5---------------------|-7-------------7------|-----9--7--7--10--7--9--7-|
D|-------------------|-----------------------|-------0---0--------0-|-0------------------------|


D|--------|-------------------------|------------------------|---------------------------------|
A|--------|-------------------------|------------------------|---------------------------------|
F|--------|-------------------------|-9-------------9--------|---------------------------------|
C|-5------|------4---5--------4---5-|-9-------------9--------|---------------------------------|
G|-5------|-3------------5----------|-7-------------7--------|-----9---7---7---10--7---9---7---|
D|-3------|-------------------------|-------0---0--------0---|-0-------------------------------|


D|--------------------|------------------------|--------------------|--------------------------|
A|--------------------|-----8---8---8---7------|--------------------|--------------------------|
F|-7-----------7------|-----7---7---7---7----7-|-9-----------9------|--------------------------|
C|-7-----------7------|----------------------7-|-9-----------9------|--------------------------|
G|-5---5---5---5----5-|-5----------------------|-7-----------7------|-----9--7--7--10--7--9--7-|
D|--------------------|------------------------|-----0---0--------0-|-0------------------------|

D|--------|---------------------------|--------|--------|--------|--------|--------|
A|--------|---------------------------|--------|--------|--------|--------|--------|
F|--------|---------------------------|-9------|-5------|--------|-7------|-9------|
C|-5------|------4---5--------4---5---|-9------|-5------|-5------|-7------|-9------|
G|-5------|-3------------5------------|-7------|-3------|-5------|-5------|-7------|
D|-3------|---------------------------|--------|--------|-3------|--------|--------|


D|--------|--------|-------------|------------------------|---------------------------------|
A|--------|-8------|-------------|------------------------|---------------------------------|
F|-5------|-7------|-5-----7-----|-9-------------9--------|---------------------------------|
C|-5------|-5------|-5-----7-----|-9-------------9--------|---------------------------------|
G|-3------|--------|-3-----5-----|-7-------------7--------|-----9---7---7---10--7---9---7---|
D|--------|--------|-------------|-------0---0--------0---|-0-------------------------------|


D|--------------------|------------------------|--------------------|--------------------------|
A|--------------------|-----8---8---8---7------|--------------------|--------------------------|
F|-7-----------7------|-----7---7---7---7----7-|-9-----------9------|--------------------------|
C|-7-----------7------|----------------------7-|-9-----------9------|--------------------------|
G|-5---5---5---5----5-|-5----------------------|-7-----------7------|-----9--7--7--10--7--9--7-|
D|--------------------|------------------------|-----0---0--------0-|-0------------------------|


D|--------|---------------------------|----------------------|---------------------------------|
A|--------|---------------------------|----------------------|---------------------------------|
F|--------|---------------------------|-9-----------9--------|---------------------------------|
C|-5------|------4---5--------4---5---|-9-----------9--------|---------------------------------|
G|-5------|-3------------5------------|-7-----------7--------|-----9---7---7---10--7---9---7---|
D|-3------|---------------------------|-----0---0--------0---|-0-------------------------------|


D|--------------------|------------------------|--------------------|--------------------------|
A|--------------------|-----8---8---8---7------|--------------------|--------------------------|
F|-7-----------7------|-----7---7---7---7----7-|-9-----------9------|--------------------------|
C|-7-----------7------|----------------------7-|-9-----------9------|--------------------------|
G|-5---5---5---5----5-|-5----------------------|-7-----------7------|-----9--7--7--10--7--9--7-|
D|--------------------|------------------------|-----0---0--------0-|-0------------------------|


D|--------|----------------------------|--------------------|-----------------------|
A|--------|----------------------------|--------------------|-----------------------|
F|--------|----------------------------|-9--------------5---|-5---------------------|
C|-5------|------4---5--------4---5----|-9-----9---7----5---|-5-----5---5---5---5---|
G|-5------|-3------------5-------------|-7-----7---5----3---|-3-----3---2---0---5---|
D|-3------|----------------------------|--------------------|-------------------3---|


D|--------------------|--------------------|--------------------|--------------------|
A|--------------------|--------------------|--------------------|--------------------|
F|----------------7---|-7--------------2---|-2------------------|----------------7---|
C|-5--------------7---|-7-----7---7----2---|-2-----2----5---5---|-5-----7----9---7---|
G|-5-----5---5----5---|-5-----5---5----0---|-0-----0----2---3---|-3-----5----7---5---|
D|-3-----3---3--------|--------------------|--------------------|--------------------|


D|------------------|-------------------------|--------------------|-------------------|
A|------------------|-------------------------|--------------------|-------------------|
F|-7------7---------|-------------------------|--------------------|-------------------|
C|-7------7---------|-------------------------|-5-----5---4----2---|-2---2-----------5-|
G|-5------5---5--5--|-5--5--5--5--5--5--5--5--|-7-----7---5----3---|-3---3---2---0---5-|
D|------------------|-------------------------|--------------------|-----------------3-|


D|--------------------|--------------------|--------------------|--------------------|
A|--------------------|--------------------|--------------------|--------------------|
F|----------------7---|-7--------------2---|-2------------------|----------------7---|
C|-5--------------7---|-7-----7---7----2---|-2-----2----5---5---|-5-----7----9---7---|
G|-5-----5---5----5---|-5-----5---5----0---|-0-----0----2---3---|-3-----5----7---5---|
D|-3-----3---3--------|--------------------|--------------------|--------------------|


D|--------|-----------------------|---------------|--------------------|------------------|
A|--------|-----------------------|---------------|--------------------|------------------|
F|-7------|-----------------------|-9---------7---|-7---9----------5---|-5--------------5-|
C|-7------|-5---5---5---5----7----|-9---------7---|-7---9----------5---|-5--------------5-|
G|-5------|-2---2---2---3----5----|-7---------5---|-5---7----------3---|-3--------------3-|
D|--------|-----------------------|---------------|--------------------|------------------|


D|-----------|-------------|-----------|------------------|-------------------------------|
A|-----------|-------------|-----------|------------------|-------------------------------|
F|-5---7-----|-9-----9-----|-9-----9---|------------------|-------------------------------|
C|-5---7-----|-9-----9-----|-9-----9---|-5----5----5----5-|-7---7---7---7---7---7---7---7-|
G|-3---5-----|-7-----7-----|-7-----7---|-3----3----3----3-|-5---5---5---5---5---5---5---5-|
D|-----------|-------------|-----------|------------------|-------------------------------|


D|--------------|---------------------------|------------------------|-------------------|
A|--------------|---------------------------|------------------------|-------------------|
F|--------------|---------------------------|-5-----5----------------|-----------------7-|
C|-2----------5-|-5-------------------------|-5-----5-----------5----|-5---------------7-|
G|-2----------5-|-5-------------------------|-3-----3---3---3---5----|-5---------------5-|
D|-0-----2----3-|-3---3---3---3---3---2---0-|-------------------3----|-3---3---3---3-----|


D|-----------------|---------------------------|-----------------|-----|-----------------|
A|-----------------|---------------------------|-------8----7----|-7---|-----------------|
F|-----------------|---------------------------|-5-----9----7----|-7---|-----------------|
C|-2----------5----|-5-------------------------|-5-----9----7----|-7---|-2----------5----|
G|-2----------5----|-5-------------------------|-3---------------|-----|-2----------5----|
D|-0-----2----3----|-3---3---3---3---3---2---0-|-----------------|-----|-0-----2----3----|


D|------------------------------|------------------------|-----------------------|
A|------------------------------|------------------------|-----------------------|
F|------------------------------|-5-----5----------------|-----------------7-----|
C|-5----------------------------|-5-----5-----------5----|-5---------------7-----|
G|-5----------------------------|-3-----3---3---3---5----|-5---------------5-----|
D|-3---3---3---3---3---2---0----|-------------------3----|-3---3---3---3---------|


D|-------------|---------------------------|--------------|-----|-------------------------|
A|-------------|---------------------------|-------8----7-|-7---|-------------------------|
F|-------------|---------------------------|-5-----9----7-|-7---|-9-----------------------|
C|-2---------5-|-5-------------------------|-5-----9----7-|-7---|-9-----------------------|
G|-2---------5-|-5-------------------------|-3------------|-----|-7---7---7---7---7---7---|
D|-0----2----3-|-3---3---3---3---3---2---0-|--------------|-----|-------------------------|


D|-----------------------|--------------------------|--------------------------|---------------|
A|-----------------------|--------------------------|--------------------------|---------------|
F|-9---------------------|-----5--------------------|---------7----------------|---------------|
C|-9---------------------|-----5--------------------|---------7----------------|---------------|
G|-7-----7---7---7---7---|-7---3----3---3---3---3---|-3---3---5----5---5---5---|-5---5---5---5-|
D|-----------------------|--------------------------|--------------------------|---------------|


D|----------------------|---------------------|----------------------|------------------------|
A|----------------------|---------------------|----------------------|------------------------|
F|-9--------------------|-9-------------------|-----5----------------|---------7--------------|
C|-9--------------------|-9-------------------|-----5----------------|---------7--------------|
G|-7--7---7---7---7---7-|-7-----7---7---7---7-|-7---3--3---3---3---3-|-3---3---5----5---5---5-|
D|----------------------|---------------------|----------------------|------------------------|


D|-----------------|--------|--------|--------|
A|-----------------|--------|--------|--------|
F|-------------9---|-9------|-9------|--------|
C|-------------9---|-9------|-9------|--------|
G|-5---5---5---7---|-7------|-7------|--------|
D|-------------0---|-0------|-0------|--------|
Dodał: azpunk, 2019-02-03 16:45
Opracowania video z komentarzy

Dodaj komentarz ...i/lub link do filmiku video

Zaloguj się do serwisu
Wszelkie materiały i wypowiedzi zamieszczone na www.chords.pl są własnością ich autorów.