Zacznij systematycznie uczyć się grać na gitarze razem ze stroną Moja nauka - będziesz miał/miała do niej dostęp po zalogowaniu się w serwisie

Dżentelmeni metalu - Nocny Kochanek

Dodał -a: azpunk,
Redaktor: Tomek Pietrzkowski,
Data publikacji: 2019-02-03 16:45
 
Moja nauka


Ups, problem :-/
Zaloguj się Mój śpiewnik
D|-----|-----|-----|-----|-----|-----|-----|-----|-----|
A|-----|-----|-----|-----|-----|-----|-----|-----|-----|
F|-----|-----|-----|-----|-----|-----|-----|-----|-----|
C|-----|-----|-----|-----|-----|-----|-----|-----|-2---|
G|-----|-----|-----|-----|-----|-----|-----|-----|-2---|
D|-----|-----|-----|-----|-----|-----|-----|-----|-0---|


D|-----|-----|-----|-----|-----|-----|-----|-----|-----|
A|-----|-----|-----|-----|-----|-----|-----|-----|-----|
F|-----|-----|-----|-5---|-5---|-7---|-7---|-----|-----|
C|-2---|-2---|-2---|-5---|-5---|-7---|-7---|-2---|-2---|
G|-2---|-2---|-2---|-3---|-3---|-5---|-5---|-2---|-2---|
D|-0---|-0---|-0---|-----|-----|-----|-----|-0---|-0---|


D|-------------------|-------------------|-----|-----|-----|-------------|
A|-------------------|-------------------|-----|-----|-----|-------------|
F|-------------------|-------------------|-5---|-5---|-7---|-4----4----4-|
C|-------------------|-------------------|-5---|-5---|-7---|-4----4----4-|
G|-------------2-----|-------------0----2|-3---|-3---|-5---|-2----2----2-|
D|-3---3---3--------3|-2---2---2---------|-----|-----|-----|-------------|


D|-----|-----|-------------------|-------------------|-----|-----|
A|-----|-----|-------------------|-------------------|-----|-----|
F|-----|-----|-------------------|-------------------|-5---|-5---|
C|-2---|-2---|-------------------|-------------------|-5---|-5---|
G|-2---|-2---|-------------2-----|-------------0----2|-3---|-3---|
D|-0---|-0---|-3---3---3--------3|-2---2---2---------|-----|-----|


D|-----|-------------|-----|-----|-----|-----|-----|-----|
A|-----|-------------|-----|-----|-----|-----|-----|-----|
F|-7---|-4----4----4-|-7---|-7---|-7---|-7---|-3---|-3---|
C|-7---|-4----4----4-|-7---|-7---|-7---|-7---|-3---|-3---|
G|-5---|-2----2----2-|-5---|-5---|-5---|-5---|-1---|-1---|
D|-----|-------------|-----|-----|-----|-----|-----|-----|


D|-----|-----|-----|-----|-----|-----|-------------------|----------------|
A|-----|-----|-----|-----|-----|-----|-------------------|----------------|
F|-3---|-3---|-5---|-5---|-5---|-5---|-7----7------------|-------------5--|
C|-3---|-3---|-5---|-5---|-5---|-5---|-7----7------------|-5---7---5---5--|
G|-1---|-1---|-3---|-3---|-3---|-3---|-5----5---5---5---5|-3---5---3------|
D|-----|-----|-----|-----|-----|-----|-------------------|----------------|


D|-------------------|----------------|-----|-----|-----|-----|-----|
A|-------------------|----------------|-----|-----|-----|-----|-----|
F|-7----7------------|-------------10-|-7---|-7---|-7---|-7---|-3---|
C|-7----7------------|-5---7---5---10-|-7---|-7---|-7---|-7---|-3---|
G|-5----5---5---5---5|-3---5---3------|-5---|-5---|-5---|-5---|-1---|
D|-------------------|----------------|-----|-----|-----|-----|-----|


D|-----|-----|-----|-----|-----|-----|-----|-------------------|
A|-----|-----|-----|-----|-----|-----|-----|-------------------|
F|-3---|-3---|-3---|-5---|-5---|-5---|-5---|-7----7------------|
C|-3---|-3---|-3---|-5---|-5---|-5---|-5---|-7----7------------|
G|-1---|-1---|-1---|-3---|-3---|-3---|-3---|-5----5---5---5---5|
D|-----|-----|-----|-----|-----|-----|-----|-------------------|


D|----------------|-------------------|----------------|---------|-------------|
A|----------------|-------------------|----------------|---------|-------------|
F|-------------5--|-7----7------------|-------------10-|---------|-------------|
C|-5---7---5---5--|-7----7------------|-5---7---5---10-|-9-----9-|-9----9----9-|
G|-3---5---3------|-5----5---5---5---5|-3---5---3------|-7-----7-|-7----7----7-|
D|----------------|-------------------|----------------|---------|-------------|


D|---------|-------------|---------|-------------|---------|----------------|
A|---------|-------------|---------|-------------|---------|----------------|
F|---------|-------------|---------|-------------|---------|----------------|
C|-10----10|-10---10---10|-7-----7-|-7----7----7-|-9-----9-|-9---7---7----7-|
G|-7-----7-|-7----7----7-|-5-----5-|-5----5----5-|-7-----7-|-7---5---5----5-|
D|---------|-------------|---------|-------------|---------|----------------|


D|---------|-------------|---------|-------------|---------|-------------|
A|---------|-------------|---------|-------------|---------|-------------|
F|---------|-------------|---------|-------------|---------|-------------|
C|-9-----9-|-9----9----9-|-10----10|-10---10---10---|-7-----7-|-7----7----7-|
G|-7-----7-|-7----7----7-|-7-----7-|-7----7----7-|-5-----5-|-5----5----5-|
D|---------|-------------|---------|-------------|---------|-------------|


D|-----|-----|-----|-----|-------------------|-------------------|
A|-----|-----|-----|-----|-------------------|-------------------|
F|-9---|-5---|-----|-----|-------------------|-------------------|
C|-9---|-5---|-2---|-2---|-------------------|-------------------|
G|-7---|-3---|-2---|-2---|-------------2-----|-------------0----2|
D|-----|-----|-0---|-0---|-3---3---3--------3|-2---2---2---------|


D|-----|-----|-----|-------------|-----|-----|-------------------|
A|-----|-----|-----|-------------|-----|-----|-------------------|
F|-5---|-5---|-7---|-4----4----4-|-----|-----|-------------------|
C|-5---|-5---|-7---|-4----4----4-|-2---|-2---|-------------------|
G|-3---|-3---|-5---|-2----2----2-|-2---|-2---|-------------2-----|
D|-----|-----|-----|-------------|-0---|-0---|-3---3---3--------3|


D|-------------------|-----|-----|-----|-------------|-----|-----|
A|-------------------|-----|-----|-----|-------------|-----|-----|
F|-------------------|-5---|-5---|-7---|-4----4----4-|-----|-----|
C|-------------------|-5---|-5---|-7---|-4----4----4-|-2---|-2---|
G|-------------0----2|-3---|-3---|-5---|-2----2----2-|-2---|-2---|
D|-2---2---2---------|-----|-----|-----|-------------|-0---|-0---|


D|-------------------|-------------------|-----|-----|-----|-------------|
A|-------------------|-------------------|-----|-----|-----|-------------|
F|-------------------|-------------------|-5---|-5---|-7---|-4----4----4-|
C|-------------------|-------------------|-5---|-5---|-7---|-4----4----4-|
G|-------------2-----|-------------0----2|-3---|-3---|-5---|-2----2----2-|
D|-3---3---3--------3|-2---2---2---------|-----|-----|-----|-------------|


D|-----|-----|-------------------|-------------------|-----|-----|
A|-----|-----|-------------------|-------------------|-----|-----|
F|-----|-----|-------------------|-------------------|-5---|-5---|
C|-2---|-2---|-------------------|-------------------|-5---|-5---|
G|-2---|-2---|-------------2-----|-------------0----2|-3---|-3---|
D|-0---|-0---|-3---3---3--------3|-2---2---2---------|-----|-----|


D|-----|-------------|-----|-----|-----|-----|-----|-----|
A|-----|-------------|-----|-----|-----|-----|-----|-----|
F|-7---|-4----4----4-|-7---|-7---|-7---|-7---|-3---|-3---|
C|-7---|-4----4----4-|-7---|-7---|-7---|-7---|-3---|-3---|
G|-5---|-2----2----2-|-5---|-5---|-5---|-5---|-1---|-1---|
D|-----|-------------|-----|-----|-----|-----|-----|-----|


D|-----|-----|-----|-----|-----|-----|-------------------|----------------|
A|-----|-----|-----|-----|-----|-----|-------------------|----------------|
F|-3---|-3---|-5---|-5---|-5---|-5---|-7----7------------|-------------5--|
C|-3---|-3---|-5---|-5---|-5---|-5---|-7----7------------|-5---7---5---5--|
G|-1---|-1---|-3---|-3---|-3---|-3---|-5----5---5---5---5|-3---5---3------|
D|-----|-----|-----|-----|-----|-----|-------------------|----------------|


D|-------------------|----------------|-----|-----|-----|-----|-----|
A|-------------------|----------------|-----|-----|-----|-----|-----|
F|-7----7------------|-------------10-|-7---|-7---|-7---|-7---|-3---|
C|-7----7------------|-5---7---5---10-|-7---|-7---|-7---|-7---|-3---|
G|-5----5---5---5---5|-3---5---3------|-5---|-5---|-5---|-5---|-1---|
D|-------------------|----------------|-----|-----|-----|-----|-----|


D|-----|-----|-----|-----|-----|-----|-----|-------------------|
A|-----|-----|-----|-----|-----|-----|-----|-------------------|
F|-3---|-3---|-3---|-5---|-5---|-5---|-5---|-7----7------------|
C|-3---|-3---|-3---|-5---|-5---|-5---|-5---|-7----7------------|
G|-1---|-1---|-1---|-3---|-3---|-3---|-3---|-5----5---5---5---5|
D|-----|-----|-----|-----|-----|-----|-----|-------------------|


D|----------------|-------------------|----------------|---------|-------------|
A|----------------|-------------------|----------------|---------|-------------|
F|-------------5--|-7----7------------|-------------10-|---------|-------------|
C|-5---7---5---5--|-7----7------------|-5---7---5---10-|-9-----9-|-9----9----9-|
G|-3---5---3------|-5----5---5---5---5|-3---5---3------|-7-----7-|-7----7----7-|
D|----------------|-------------------|----------------|---------|-------------|


D|---------|-------------|---------|-------------|---------|----------------|
A|---------|-------------|---------|-------------|---------|----------------|
F|---------|-------------|---------|-------------|---------|----------------|
C|-10----10|-10---10---10|-7-----7-|-7----7----7-|-9-----9-|-9---7---7----7-|
G|-7-----7-|-7----7----7-|-5-----5-|-5----5----5-|-7-----7-|-7---5---5----5-|
D|---------|-------------|---------|-------------|---------|----------------|


D|---------|-------------|---------|-------------|---------|-------------|
A|---------|-------------|---------|-------------|---------|-------------|
F|---------|-------------|---------|-------------|---------|-------------|
C|-9-----9-|-9----9----9-|-10----10|-10---10---10|-7-----7-|-7----7----7-|
G|-7-----7-|-7----7----7-|-7-----7-|-7----7----7-|-5-----5-|-5----5----5-|
D|---------|-------------|---------|-------------|---------|-------------|


D|-----|-----|-----|-----|-------------------|-------------------|
A|-----|-----|-----|-----|-------------------|-------------------|
F|-9---|-5---|-----|-----|-------------------|-------------------|
C|-9---|-5---|-2---|-2---|-------------------|-------------------|
G|-7---|-3---|-2---|-2---|-------------2-----|-------------0----2|
D|-----|-----|-0---|-0---|-3---3---3--------3|-2---2---2---------|


D|-----|-----|-----|-------------|-----|-----|-------------------|
A|-----|-----|-----|-------------|-----|-----|-------------------|
F|-5---|-5---|-7---|-4----4----4-|-----|-----|-------------------|
C|-5---|-5---|-7---|-4----4----4-|-2---|-2---|-------------------|
G|-3---|-3---|-5---|-2----2----2-|-2---|-2---|-------------2-----|
D|-----|-----|-----|-------------|-0---|-0---|-3---3---3--------3|


D|-------------------|-----|-----|-----|-------------|-----|-----|
A|-------------------|-----|-----|-----|-------------|-----|-----|
F|-------------------|-5---|-5---|-7---|-4----4----4-|-----|-----|
C|-------------------|-5---|-5---|-7---|-4----4----4-|-2---|-2---|
G|-------------0----2|-3---|-3---|-5---|-2----2----2-|-2---|-2---|
D|-2---2---2---------|-----|-----|-----|-------------|-0---|-0---|


D|-------------------|-------------------|-----|-----|-----|-------------|
A|-------------------|-------------------|-----|-----|-----|-------------|
F|-------------------|-------------------|-5---|-5---|-7---|-4----4----4-|
C|-------------------|-------------------|-5---|-5---|-7---|-4----4----4-|
G|-------------2-----|-------------0----2|-3---|-3---|-5---|-2----2----2-|
D|-3---3---3--------3|-2---2---2---------|-----|-----|-----|-------------|


D|-----|-----|-------------------|-------------------|-----|-----|
A|-----|-----|-------------------|-------------------|-----|-----|
F|-----|-----|-------------------|-------------------|-5---|-5---|
C|-2---|-2---|-------------------|-------------------|-5---|-5---|
G|-2---|-2---|-------------2-----|-------------0----2|-3---|-3---|
D|-0---|-0---|-3---3---3--------3|-2---2---2---------|-----|-----|


D|-----|-------------|-----|-----|-----|-----|-----|-----|
A|-----|-------------|-----|-----|-----|-----|-----|-----|
F|-7---|-4----4----4-|-----|-----|-5---|-5---|-----|-----|
C|-7---|-4----4----4-|-2---|-2---|-5---|-5---|-5---|-5---|
G|-5---|-2----2----2-|-2---|-2---|-3---|-3---|-5---|-5---|
D|-----|-------------|-0---|-0---|-----|-----|-3---|-3---|


D|-------------------|-------------------|-----|-----|-----|-----|
A|-------------------|-------------------|-----|-----|-----|-----|
F|-7-----------------|-7----7------------|-----|-----|-----|-----|
C|-7-----------------|-7----7------------|-2---|-2---|-5---|-5---|
G|-5----5---5---5---5|-5----5---5---5---5|-2---|-2---|-5---|-5---|
D|-------------------|-------------------|-0---|-0---|-3---|-3---|


D|-----|-----|-----|-----|-----|-----|-----|-----|-----|
A|-----|-----|-----|-----|-----|-----|-----|-----|-----|
F|-5---|-5---|-7---|-7---|-----|-----|-----|-----|-----|
C|-5---|-5---|-7---|-7---|-2---|-2---|-----|-----|-5---|
G|-3---|-3---|-5---|-5---|-2---|-2---|-0---|-0---|-5---|
D|-----|-----|-----|-----|-0---|-0---|-2---|-2---|-3---|


D|-----|-----|-----|-----|-----|-----|-----|-----|-----|
A|-----|-----|-----|-----|-----|-----|-----|-----|-----|
F|-----|-----|-7---|-----|-----|-----|-----|-----|-----|
C|-5---|-7---|-7---|-2---|-2---|-----|-----|-5---|-5---|
G|-5---|-7---|-5---|-2---|-2---|-0---|-0---|-5---|-5---|
D|-3---|-5---|-----|-0---|-0---|-2---|-2---|-3---|-3---|


D|-----|-----|---------------------|-------------|---------------------|
A|-----|-----|---------------------|-------------|---------------------|
F|-----|-----|---------------------|-------------|---------------------|
C|-7---|-7---|-2---2--2--2---2-----|-------------|---------------------|
G|-7---|-7---|-2---2--2--2---2-----|-------------|-0---0--0--0---0-----|
D|-5---|-5---|-0---0--0--0---0-----|-------------|-2---2--2--2---2-----|


D|-------------|---------------------|-------------|---------------------|
A|-------------|---------------------|-------------|---------------------|
F|-------------|---------------------|-------------|---------------------|
C|-------------|-5---5--5--5---5-----|-------------|-7---7--7--7---7-----|
G|-------------|-5---5--5--5---5-----|-------------|-7---7--7--7---7-----|
D|-------------|-3---3--3--3---3-----|-------------|-5---5--5--5---5-----|


D|---------------------|------------------------|------------------------|
A|---------------------|------------------------|------------------------|
F|-7---7--7--7---7-----|------------------------|------------------------|
C|-7---7--7--7---7-----|-2---2--2--2---2---2---2|-2---2--2--2---2---2---2|
G|-5---5--5--5---5-----|-2---2--2--2---2---2---2|-2---2--2--2---2---2---2|
D|---------------------|-0---0--0--0---0---0---0|-0---0--0--0---0---0---0|


D|------------------------|------------------------|------------------------|
A|------------------------|------------------------|------------------------|
F|------------------------|------------------------|------------------------|
C|------------------------|------------------------|-5---5--5--5---5---5---5|
G|-0---0--0--0---0---0---0|-0---0--0--0---0---0---0|-5---5--5--5---5---5---5|
D|-2---2--2--2---2---2---2|-2---2--2--2---2---2---2|-3---3--3--3---3---3---3|


D|------------------------|------------------------|------------------------|
A|------------------------|------------------------|------------------------|
F|------------------------|------------------------|-7---7--7--7---7---7---7|
C|-5---5--5--5---5---5---5|-7---7--7--7---7---7---7|-7---7--7--7---7---7---7|
G|-5---5--5--5---5---5---5|-7---7--7--7---7---7---7|-5---5--5--5---5---5---5|
D|-3---3--3--3---3---3---3|-5---5--5--5---5---5---5|------------------------|


D|-------------|-----|-----|-----|-----|-----|-----|----------|
A|-------------|-----|-----|-----|-----|-----|-----|----------|
F|-------------|-----|-----|-----|-5---|-5---|-7---|-7-----4--|
C|-2-----------|-----|-----|-----|-5---|-5---|-7---|-7-----4--|
G|-2-----------|-----|-----|-----|-3---|-3---|-5---|-5-----2--|
D|-0-----------|-----|-----|-----|-----|-----|-----|----------|


D|-------------|-----|-----|-----|-----|-----|-----|-----|
A|-------------|-----|-----|-----|-----|-----|-----|-----|
F|-------------|-----|-----|-----|-5---|-5---|-7---|-7---|
C|-2-----------|-----|-----|-----|-5---|-5---|-7---|-7---|
G|-2-----------|-----|-----|-----|-3---|-3---|-5---|-5---|
D|-0-----------|-----|-----|-----|-----|-----|-----|-----|


D|-----|-----|-------------------|-------------------|-----|-----|
A|-----|-----|-------------------|-------------------|-----|-----|
F|-----|-----|-------------------|-------------------|-7---|-7---|
C|-4---|-4---|-------------------|-------------------|-7---|-7---|
G|-4---|-4---|-------------4-----|-------------2----4|-5---|-5---|
D|-2---|-2---|-5---5---5--------5|-4---4---4---------|-----|-----|


D|-----|-------------|-----|-----|-------------------|-------------------|
A|-----|-------------|-----|-----|-------------------|-------------------|
F|-9---|-6----6----6-|-----|-----|-------------------|-------------------|
C|-9---|-6----6----6-|-4---|-4---|-------------------|-------------------|
G|-7---|-4----4----4-|-4---|-4---|-------------4-----|-------------2----4|
D|-----|-------------|-2---|-2---|-5---5---5--------5|-4---4---4---------|


D|-----|-----|-----|-------------|-----|-----|-------------------|
A|-----|-----|-----|-------------|-----|-----|-------------------|
F|-7---|-7---|-9---|-6----6----6-|-----|-----|-------------------|
C|-7---|-7---|-9---|-6----6----6-|-4---|-4---|-------------------|
G|-5---|-5---|-7---|-4----4----4-|-4---|-4---|-------------4-----|
D|-----|-----|-----|-------------|-2---|-2---|-5---5---5--------5|


D|-------------------|-----|-----|-----|-------------|-----|-----|
A|-------------------|-----|-----|-----|-------------|-----|-----|
F|-------------------|-7---|-7---|-9---|-6----6----6-|-----|-----|
C|-------------------|-7---|-7---|-9---|-6----6----6-|-4---|-4---|
G|-------------2----4|-5---|-5---|-7---|-4----4----4-|-4---|-4---|
D|-4---4---4---------|-----|-----|-----|-------------|-2---|-2---|


D|-------------------|-------------------|-----|-----|-----|-------------|
A|-------------------|-------------------|-----|-----|-----|-------------|
F|-------------------|-------------------|-7---|-7---|-9---|-6----6----6-|
C|-------------------|-------------------|-7---|-7---|-9---|-6----6----6-|
G|-------------4-----|-------------2----4|-5---|-5---|-7---|-4----4----4-|
D|-5---5---5--------5|-4---4---4---------|-----|-----|-----|-------------|


D|----------------|-------------------|-------------|
A|----------------|-------------------|-------------|
F|----------------|-------------------|-------------|
C|-4----4---------|---------4---------|-4-----------|
G|-4----4---------|---------4---------|-4-----------|
D|-2----2----2---2|-2---2---2----2---2|-2-----------|





 Solo

D|-0---0---0---12---0-|-10--0---5---7---5-|-0---0---0---3---0---0|-2---0---0---5--|
A|--------------------|-------------------|----------------------|----------------|
F|--------------------|-------------------|----------------------|----------------|
C|--------------------|-------------------|----------------------|----------------|
G|--------------------|-------------------|----------------------|----------------|
D|--------------------|-------------------|----------------------|----------------|


D|-0---0---0---12---0|-10---0---5---7---5|-------------7---7----|-------------5----7|
A|-------------------|-------------------|-8---8---8----------8-|-7---7---7---------|
F|-------------------|-------------------|----------------------|-------------------|
C|-------------------|-------------------|----------------------|-------------------|
G|-------------------|-------------------|----------------------|-------------------|
D|-------------------|-------------------|----------------------|-------------------|


D|-0---0---0---12---0|-10---0---5---7---5|-0---0---0---3---0---0|-2---0---0---5--|
A|-------------------|-------------------|----------------------|----------------|
F|-------------------|-------------------|----------------------|----------------|
C|-------------------|-------------------|----------------------|----------------|
G|-------------------|-------------------|----------------------|----------------|
D|-------------------|-------------------|----------------------|----------------|


D|-0---0---0---12---0|-10---0---5---7---5|-------------7---7----|-------------5----7|
A|-------------------|-------------------|-8---8---8-----------8|-7---7---7---------|
F|-------------------|-------------------|----------------------|-------------------|
C|-------------------|-------------------|----------------------|-------------------|
G|-------------------|-------------------|----------------------|-------------------|
D|-------------------|-------------------|----------------------|-------------------|


D|-0---0---0---12---0|-10---0---5---7---5|-0---0---0---3---0---0|-2---0---0---5--|
A|-------------------|-------------------|----------------------|----------------|
F|-------------------|-------------------|----------------------|----------------|
C|-------------------|-------------------|----------------------|----------------|
G|-------------------|-------------------|----------------------|----------------|
D|-------------------|-------------------|----------------------|----------------|


D|-0---0---0---12---0|-10---0---5---7---5|-------------7---7----|-------------5----7|
A|-------------------|-------------------|-8---8---8-----------8|-7---7---7---------|
F|-------------------|-------------------|----------------------|-------------------|
C|-------------------|-------------------|----------------------|-------------------|
G|-------------------|-------------------|----------------------|-------------------|
D|-------------------|-------------------|----------------------|-------------------|


D|-0---0---0---12---0|-10---0---5---7---5|-0---0---0---3---0---0|-2---0---0---5--|
A|-------------------|-------------------|----------------------|----------------|
F|-------------------|-------------------|----------------------|----------------|
C|-------------------|-------------------|----------------------|----------------|
G|-------------------|-------------------|----------------------|----------------|
D|-------------------|-------------------|----------------------|----------------|


D|-0---0---0---12---0|-10---0---5---7---5|-------------7---7----|-------------5----7|
A|-------------------|-------------------|-8---8---8-----------8|-7---7---7---------|
F|-------------------|-------------------|----------------------|-------------------|
C|-------------------|-------------------|----------------------|-------------------|
G|-------------------|-------------------|----------------------|-------------------|
D|-------------------|-------------------|----------------------|-------------------|
Dodał: azpunk, 2019-02-03 16:45
Opracowania video z komentarzy

Dodaj komentarz ...i/lub link do filmiku video

Zaloguj się do serwisu
Wszelkie materiały i wypowiedzi zamieszczone na www.chords.pl są własnością ich autorów.