Zacznij systematycznie uczyć się grać na gitarze razem ze stroną Moja nauka - będziesz miał/miała do niej dostęp po zalogowaniu się w serwisie

Koń na białym rycerzu - Nocny Kochanek

Opracował -a: marekm1,
Dodał -a: marekm1,
Redaktor: Tomek Pietrzkowski,
Pochodzi z: http://www.chords.pl/
Data publikacji: 2019-03-19 22:54
 
Moja nauka


Ups, problem :-/
Zaloguj się Mój śpiewnik
Piosenka w oryginale grana w stroju D standard (cały ton niżej), 
opracowanie dostosowane jego do standardowego stroju (EBGDAE)

Intro
Dm C Dm
Dm C Dm
A# F
Gm A

Zwrotki
Dm C
Dm C
A# F
Gm A
(Konia co rży)
A# A Dm


Ref:
Dm C Dm
Dm C
A# F
Gm A

Dm C Dm
Dm C
A# F
A# A Dm


E|------------------------------------------------------------------------|
B|.---------------------------------.-------------------------------------|
G|--------10-9-10-12-10-9-10---------------10-9-10-12-10-12-14------------|
D|--12-14------------------- 12------12-14--------------------------------|
A|------------------------------------------------------------------------|
E|------------------------------------------------------------------------|

E|------------------------------------------------------------------------|
B|.---------------------------------.-------------------------------------|
G|--14 14/15-14-12---------12-12/13-12-10---------------------------------|
D|-----------------14-12------------------12------------------------------|
A|------------------------------------------------------------------------|
E|------------------------------------------------------------------------|

E|------------------------------------------------------------------------|
B|.---------------------------------.-------------------------------------|
G|----9-10-10-10-9---9----------------------------------------------------|
D|-----------------11--12-------------------------------------------------|
A|------------------------------------------------------------------------|
E|------------------------------------------------------------------------|

D5 E5 D5 E5

Solo
D|------------------------------------------------------------------------|
A|------------------------------------------------------------------------|
F|------------------------------------------------------------------------|
C|------------------------------------------------------------------------|
G|---5-5-4-5-7--7-5-7-8-3-10-12-------------------------------------------|
D|------------------------------------------------------------------------|

Dodaj komentarz ...i/lub link do filmiku video

Zaloguj się do serwisu
Wszelkie materiały i wypowiedzi zamieszczone na www.chords.pl są własnością ich autorów.