Zacznij systematycznie uczyć się grać na gitarze razem ze stroną Moja nauka - będziesz miał/miała do niej dostęp po zalogowaniu się w serwisie

Get It Right - Organek

Opracował -a: AlPakaa,
Dodał -a: AlPakaa,
Redaktor: praz,
Pochodzi z: http://www.chords.pl/
Data publikacji: 2018-02-13 17:37
 
Moja nauka


Ups, problem :-/
Zaloguj się Mój śpiewnik


Riff 1
e|-------------------------------------------|
B|-------------------------------------------|
G|-------------------------------------------|
D|-------------------------------------------|
A|--------------5------------------5---------|
E|----0--3--0-------3--0--0--3--0-----3--2---|   x5

A5 G5 A5

Riff 2
e|-------------------------------------------|
B|--10--8--10--10b12r10p8--------------------|
G|-------------------------9-----------------|
D|-------------------------------------------|
A|-------------------------------------------|
E|-------------------------------------------|

Riff 1 x2
A5 G5 A5
Riff 2

Riff 1 x2
B5 C#5 D5
Riff 2

Riff 1 x2
A|---5--7----| x4
A5 G5
A|---5--7----| x4
Riff 2

E
E G5 F#5

Dodaj komentarz ...i/lub link do filmiku video

Zaloguj się do serwisu
Ostatnie komentarze
1.
barszcz7
2018-02-22 16:52
riff 1 e h g d a 5 5 e 0 2 0 3 0 0 2 0 3 2 riff 2 d 7 5 7 8 7 5 a 7
Wszelkie materiały i wypowiedzi zamieszczone na www.chords.pl są własnością ich autorów.