Zacznij systematycznie uczyć się grać na gitarze razem ze stroną Moja nauka - będziesz miał/miała do niej dostęp po zalogowaniu się w serwisie

Niepokonani - Perfect

Dodał -a: emiliann,
Redaktor: Tomek Pietrzkowski,
Data publikacji: 2006-12-18 00:27
 
Moja nauka


Ups, problem :-/
Zaloguj się Mój śpiewnik



Intro:

 rake h         h/A   G Fis
    h  h/A      G   Fis

--10--10--9-----------------------sl--sl------------------------------------
--7---7---7---12--12--10--9--9--7--9--10--9---7-----------------------------
--7---7---7---9---9---7---6--6--4--6--7---6------4--------------------------
--9---9---9---9---9---7---6--6--4--6--7---6---------------------------------
----------------------------------------------------------------------------
----------------------------------------------------------------------------


-----10--9--------------------10---10---10---9---sl--------2----------------
-----7---7---12--12--10----9-----8----9----7---7--5--3----2-----------------
-----7---7---9---9---7-------------------------------------3----------------
-----9---9---9---9---7-------------------------------------4----------------
-----------------------------------------------------------4----------------
-----------------------------------------------------------2----------------


---------------------------3------------5-----------------------------------
------3--------3-----------3---3--3-----5--3--------2-----------------------
------4--------4-------4---4---4--4--------4--------3-----------------------
----4---4----4---4---------5---5--5--------5------4---4---------------------
--2--------0---------------5---5--5--------5--------------------------------
--------------------3------3---3--3--3-----3---2----------------------------


--10--10---9----------------------------------------------------------------
--7---7----7---12--12--10---------------------------------------------------
--7---7----7---9---9---7----------------------------------------------------
--9---9----9---9---9---7----------------------------------------------------
----------------------------------------------------------------------------
----------------------------------------------------------------------------


-------------7-----------7------------3------------5------------------------
-----------7---7-------7---7----------3---3--3-----5--3--------2------------
----------------------------------4---4---4--4--------4--------3------------
--------------------------------------5---5--5--------5------4---4----------
----sl-------------0------------------5---5--5--------5---------------------
--5--7------------------------3------3---3--3--3-----3---2------------------


-------------------2----------2-----------0--------------3-------2----------
-------------------3----------3-----------0------3---2---3----0--0----------
-----4-----------2---2------4---4-------0---0----2---2---0----0--0----------
---4------h----0---------------------2-----------2---2---0--x---------------
-2------2--4-------------2-----------------------0---0---2--x---------------
---------------------------------------------------------3------------------


---0---0--0--0-----3---5---3---------sl---sl--------------------------------
---0---0--0--0-----4---6---4-------6--7---6---------------------------------
---2---2--2--2-----5---7---5------------------------------------------------
---2---2--2--2-----5---7---5------------------------------------------------
---0---0--0--0-----3---5---3------------------------------------------------
----------------------------------------------------------------------------


-----3---------3-----------12---12----12---12---------3------3-------2---2--
-----4---------4-------------------12---------12--------4----4-----3------3-
---4---4-----4---4------12--------------------------5-----5--5---4----------
-2---------0---------10--------------------------------------5--------------
--------------------------------------------------3----------3--2-----------
----------------------------------------------------------------------------
P

-7---7---7---12--12--10----9-----8----9----7---7--5--3----2-----------------
-7---7---7---9---9---7-------------------------------------3----------------
-9---9---9---9---9---7-------------------------------------4----------------
-----------------------------------------------------------4----------------
-----------------------------------------------------------2----------------
----------------------------------------------------------------------------

Dodaj komentarz ...i/lub link do filmiku video

Zaloguj się do serwisu
Ostatnie komentarze
1.
lolko
2012-01-22 12:56
za przeproszeniem ale do "pupy" to jest... każde opracowanie w necie jest praktycznie identyczne i złe
Wszelkie materiały i wypowiedzi zamieszczone na www.chords.pl są własnością ich autorów.