Zacznij systematycznie uczyć się grać na gitarze razem ze stroną Moja nauka - będziesz miał/miała do niej dostęp po zalogowaniu się w serwisie

Chodź ze mną - Power Of Trinity

Opracował -a: petlica,
Dodał -a: petlica,
Redaktor: petlica,
Pochodzi z: http://www.chords.pl
Data publikacji: 2012-02-05 20:11
 
Moja nauka


Ups, problem :-/
Zaloguj się Mój śpiewnik


Intro
 wah-wah
|-12----------|------7---------|-12-----------|-----7----------|
|-------------|-7--------------|--------------|-7----------5---|
|-------------|----------------|--------------|-------7--4---5-|
|-------------|----------------|--------------|----------------|
|-------------|----------------|--------------|----------------|
|-------------|----------------|--------------|----------------|
 NH............................................................


Verse
 e   G   C  a

Ref
|-----------------|-----------------|-----------------|--------------------|
|-----------------|-----------------|-----------------|--------------------|
|-----------------|-----------------|-----------------|--------------------|
|---------9-9-----|---------9-9-----|---------9-9-----|------------7-7-----|
|-----7-------7-7-|-----7-------7-7-|-----7-------7-7-|-------7--------7-7-|
|-0-0---0---------|-7-7---7---------|-8-8---8---------|-10-10---10---------|


|-----------------|-----------------|-----------------|---------------|
|-----------------|-----------------|-----------------|---------------|
|-----------------|-----------------|-----------------|-7-7---7-7-7---|
|---------9-9-----|---------9-9-----|---------9-9-----|-7-7---7-7-7---|
|-----7-------7-7-|-----7-------7-7-|-----7-------7-7-|-5-5---5-5-5---|
|-0-0---0---------|-7-7---7---------|-8-8---8---------|---------------|


Bridge
                                1...  2....  3...  4..
|---------------------------------5--|------|-----|-----|
|-------------------------------5----|-7----|-----|-7---|
|-9--9------12--12-----16--16--------|-7----|-12--|-7---|
|-x--x-------x---x-------------------|------|-----|-----|
|-7--7------10--10-----14--14--------|------|-----|-----|
|------------------------------------|------|-----|-----|
                                NH.......................


|-12--------12--------12-------|-12----12----12----12----12----12----12------------|
|------12--------12--------12--|----12----12----12----12----12----12----12---------|
|------------------------------|-------------------------------------------12------|
|------------------------------|---------------------------------------------------|
|------------------------------|---------------------------------------------------|
|------------------------------|---------------------------------------------------|
 NH................................................................................

Ref
 e   G   C  a
Dodał: Bartek Pawłowski, 2017-01-06 17:01
Opracowania video z komentarzy

Dodaj komentarz ...i/lub link do filmiku video

Zaloguj się do serwisu
Wszelkie materiały i wypowiedzi zamieszczone na www.chords.pl są własnością ich autorów.