Zacznij systematycznie uczyć się grać na gitarze razem ze stroną Moja nauka - będziesz miał/miała do niej dostęp po zalogowaniu się w serwisie

Senty Menty - Pustki

Opracował -a: Ankhe,
Dodał -a: Ankhe,
Redaktor: Tomek Pietrzkowski,
Pochodzi z: http://www.chords.pl
Data publikacji: 2009-10-28 23:18
 
Moja nauka


Ups, problem :-/
Zaloguj się Mój śpiewnik
Uwaga!, metrum 7/8...

Chwyty:

   C   A   D   F   G
E|-x---x---x---x---x--|
B|-x---x---x---x---x--|
G|-5---2---7---10--12-|
D|-5---2---7---10--12-|
A|-3---0---5---8---10-|
E|-3---0---5---8---10-|

intro:

E|-------------------------------------------|-------------------------------------------|
B|-------10-------------10-------------10----|-------10-------------10-------------10----|
G|----12----12-------12-------12----12----12-|----12----12-------12-------12----12----12-|
D|-14-------------14-------------14----------|-14-------------14-------------14----------|
A|-------------------------------------------|-------------------------------------------|
E|-------------------------------------------|-------------------------------------------|

E|-------------------------------------------|-------------------------------------------|
B|-------10-------------10-------------10----|-------10-------------10-------------10----|
G|----12----12-------12-------12----12----12-|----12----12-------12-------12----12----12-|
D|-15-------------15-------------15----------|-15-------------15-------------15----------|
A|-------------------------------------------|-------------------------------------------|
E|-------------------------------------------|-------------------------------------------|
nim...
E|-------------------------------------------|-------------------------------------------|
B|-------10-------------10-------------10----|-------10-------------10-------------10----|
G|----12----12-------12-------12----12----12-|----12----12-------12-------12----12----12-|
D|-14-------------14-------------14----------|-14-------------14-------------14----------|
A|-------------------------------------------|-------------------------------------------|
E|-------------------------------------------|-------------------------------------------|

E|-------------------------------------------|-------------------------------------------|
B|-------10-------------10-------------10----|-------10-------------10-------------10----|
G|----12----12-------12-------12----12----12-|----12----12-------12-------12----12----12-|
D|-15-------------15-------------15----------|-15-------------15-------------15----------|
A|-------------------------------------------|-------------------------------------------|
E|-------------------------------------------|-------------------------------------------|

E|-------------------------------------------|-------------------------------------------|
B|-------10-------------10-------------10----|-------10-------------10-------------10----|
G|----12----12-------12-------12----12----12-|----12----12-------12-------12----12----12-|
D|-14-------------14-------------14----------|-14-------------14-------------14----------|
A|-------------------------------------------|-------------------------------------------|
E|-------------------------------------------|-------------------------------------------|

E|-------------------------------------------|-------------------------------------------|
B|-------10-------------10-------------10----|-------13-------------12-------------12----|
G|----12----12-------12-------12----12----12-|----12----12-------12-------12----12----12-|
D|-15-------------15-------------15----------|-15-------------15-------------15----------|
A|-------------------------------------------|-------------------------------------------|
E|-------------------------------------------|-------------------------------------------|

E|-------------------------------------------|-------------------------------------------|
B|-------10-------------10-------------10----|-------10-------------10-------------10----|
G|----12----12-------12-------12----12----12-|----12----12-------12-------12----12----12-|
D|-14-------------14-------------14----------|-14-------------14-------------14----------|
A|-------------------------------------------|-------------------------------------------|
E|-------------------------------------------|-------------------------------------------|

E|-------------------------------------------|-------------------------------------------|
B|-------10-------------10-------------10----|-------13-------------12-------------12----|
G|----12----12-------12-------12----12----12-|----12----12-------12-------12----12----12-|
D|-15-------------15-------------15----------|-15-------------15-------------15----------|
A|-------------------------------------------|-------------------------------------------|
E|-------------------------------------------|-------------------------------------------|

E|-------------------------------------------|-------------------------------------------|
B|-------10-------------10-------------10----|-------10-------------10-------------10----|
G|----12----12-------12-------12----12----12-|----12----12-------12-------12----12----12-|
D|-14-------------14-------------14----------|-14-------------14-------------14----------|
A|-------------------------------------------|-------------------------------------------|
E|-------------------------------------------|-------------------------------------------|

E|-------------------------------------------|-------------------------------------------|
B|-------10-------------10-------------10----|-------13-------------12-------------12----|
G|----12----12-------12-------12----12----12-|----12----12-------12-------12----12----12-|
D|-15-------------15-------------15----------|-15-------------15-------------15----------|
A|-------------------------------------------|-------------------------------------------|
E|-------------------------------------------|-------------------------------------------|


E|-------------------------------------------|-------------------------------------------|
B|-------10-------------10-------------10----|-------10-------------10-------------10----|
G|----12----12-------12-------12----12----12-|----12----12-------12-------12----12----12-|
D|-14-------------14-------------14----------|-14-------------14-------------14----------|
A|-------------------------------------------|-------------------------------------------|
E|-------------------------------------------|-------------------------------------------|
nim...
E|-------------------------------------------|-------------------------------------------|
B|-------10-------------10-------------10----|-------10-------------10-------------10----|
G|----12----12-------12-------12----12----12-|----12----12-------12-------12----12----12-|
D|-15-------------15-------------15----------|-15-------------15-------------15----------|
A|-------------------------------------------|-------------------------------------------|
E|-------------------------------------------|-------------------------------------------|

E|-------------------------------------------|-------------------------------------------|
B|-------10-------------10-------------10----|-------10-------------10-------------10----|
G|----12----12-------12-------12----12----12-|----12----12-------12-------12----12----12-|
D|-14-------------14-------------14----------|-14-------------14-------------14----------|
A|-------------------------------------------|-------------------------------------------|
E|-------------------------------------------|-------------------------------------------|

E|-------------------------------------------|-------------------------------------------|
B|-------10-------------10-------------10----|-------10-------------10-------------10----|
G|----12----12-------12-------12----12----12-|----12----12-------12-------12----12----12-|
D|-15-------------15-------------15----------|-15-------------15-------------15----------|
A|-------------------------------------------|-------------------------------------------|
E|-------------------------------------------|-------------------------------------------|

E|-------------------------------------------|-------------------------------------------|
B|-------10-------------10-------------10----|-------10-------------10-------------10----|
G|----12----12-------12-------12----12----12-|----12----12-------12-------12----12----12-|
D|-14-------------14-------------14----------|-14-------------14-------------14----------|
A|-------------------------------------------|-------------------------------------------|
E|-------------------------------------------|-------------------------------------------|

E|-------------------------------------------|-------------------------------------------|
B|-------10-------------10-------------10----|-------13-------------12-------------12----|
G|----12----12-------12-------12----12----12-|----12----12-------12-------12----12----12-|
D|-15-------------15-------------15----------|-15-------------15-------------15----------|
A|-------------------------------------------|-------------------------------------------|
E|-------------------------------------------|-------------------------------------------|

E|-------------------------------------------|-------------------------------------------|
B|-------10-------------10-------------10----|-------10-------------10-------------10----|
G|----12----12-------12-------12----12----12-|----12----12-------12-------12----12----12-|
D|-14-------------14-------------14----------|-14-------------14-------------14----------|
A|-------------------------------------------|-------------------------------------------|
E|-------------------------------------------|-------------------------------------------|

E|-------------------------------------------|-------------------------------------------|
B|-------10-------------10-------------10----|-------13-------------12----12----12-12----|
G|----12----12-------12-------12----12----12-|----12----12-------12-12----12----12-12----|
D|-15-------------15-------------15----------|-15-------------15-------------------------|
A|-------------------------------------------|-------------------------------------------|
E|-------------------------------------------|-------------------------------------------|

bridge:
                                             x7
E|-------------------------------------------|-------------------------------------------|
B|-------------------------------------------|-------------------------------------------|
G|-------------------------------------------|-------------------------------------------|
D|-------7--------------7--------------7-----|-------10-------------9--------------9-----|
A|----7-----7--------7--------7-----7-----7--|----7-----7--------7--------7-----7--------|
E|(5)------------(5)------------(5)----------|(5)------------(5)------------(5)----------|


C    A    D    F   x4

G    F    F    D    C    A     A     D

C    A    F    D   x2
Na na na...

solo riff(od "...że to koniec...")           x3 ...nowe się...
E|-------------------------------------------|-------------------------------------------|
B|-10-10-10\8-----8----\6--6--6-\5-----5-----|-10-10-10/12----12---/13-13-13/15----15----|
G|-------------------------------------------|-------------------------------------------|
D|-------------------------------------------|-------------------------------------------|
A|-------------------------------------------|-------------------------------------------|
E|-------------------------------------------|-------------------------------------------|

...teraz...                                  x3
E|-------------------------------------------|-------------------------------------------|
B|-17-17-17\15----15---\13-13-13\12----12----|-17-17-17/18-18-18-18\17-17-18-17-18-17-18-|
G|-------------------------------------------|-------------------------------------------|
D|-------------------------------------------|-------------------------------------------|
A|-------------------------------------------|-------------------------------------------|
E|-------------------------------------------|-------------------------------------------|

E|-------------------------------------------|-------------------------------------------|
B|-17~~~-------------------------------------|-15~~~-------------------------------------|
G|-------------------------------------------|-------------------------------------------|

E|-------------------------------------------|-------------------------------------------|
B|-13~~~-------------------------------------|-10~~~-------------------------------------|
G|-------------------------------------------|-------------------------------------------|
                                               tremolo bar powoli /\
E|-------------------------------------------|-------------------------------------------|
B|-8~~~~-------------------------------------|-5~~~~-------------------------------------|
G|-------------------------------------------|-------------------------------------------|

ending riffs:

E|-------------------------------------------|-------------------------------------------|
B|-------------------------------------------|-------------------------------------------|
G|-------------------------------------------|-------------------------------------------|
D|-------------------------------------------|-------------------------------------------|
A|-7--7-----7-----5-----5-----3--5----/10----|-7--7-----7-----5-----5-----3--5----/10----|
E|-5--5-----5-----3-----3-----1--3----/8-----|-5--5-----5-----3-----3-----1--3----/8-----|

E|-------------------------------------------|-------------------------------------------|
B|-------------------------------------------|-------------------------------------------|
G|-------------------------------------------|-------------------------------------------|
D|-------------------------------------------|-------------------------------------------|
A|-8--8-----8-----5-----5-----3--5----/10----|-7--7-----7-----5-----5-----3--5----/10----|
E|-6--6-----6-----3-----3-----1--3----/8-----|-5--5-----5-----3-----3-----1--3----/8-----|

E|-------------------------------------------|-------------------------------------------|
B|-------------------------------------------|-------------------------------------------|
G|-------------------------------------------|-------------------------------------------|
D|-------------------------------------------|-------------------------------------------|
A|-7--7-----7-----5-----5-----3--5----/10----|-7--7-----7-----5-----5-----3--5----/10----|
E|-5--5-----5-----3-----3-----1--3----/8-----|-5--5-----5-----3-----3-----1--3----/8-----|

E|-------------------------------------------|-------------------------------------------|
B|-------------------------------------------|-------------------------------------------|
G|-------------------------------------------|-------------------------------------------|
D|-------------------------------------------|-------------------------------------------|
A|-8--8-----8-----5-----5-----3--5----/10----|-7--7-----7-----5-----5-----3--3--3-/10----|
E|-6--6-----6-----3-----3-----1--3----/8-----|-5--5-----5-----3-----3-----1--1--1-/8-----|


Ankhe (akari4@o2.pl)
Dodał: Ankhe, 2009-10-28 23:18
Opracowania video z komentarzy

Dodaj komentarz ...i/lub link do filmiku video

Zaloguj się do serwisu
Wszelkie materiały i wypowiedzi zamieszczone na www.chords.pl są własnością ich autorów.