Zacznij systematycznie uczyć się grać na gitarze razem ze stroną Moja nauka - będziesz miał/miała do niej dostęp po zalogowaniu się w serwisie

Gwiazdy spadają - Romantycy Lekkich Obyczajów

Opracował -a: Rock08,
Dodał -a: Rock08,
Redaktor: Tomek Pietrzkowski,
Data publikacji: 2019-11-04 09:50
 
Moja nauka


Ups, problem :-/
Zaloguj się Mój śpiewnik
Zwrotki

E------------------------------------------------------------------
B------------------------------------------------------------------
G--2---2---2---2---4---4---4---4---7---7---7---7---7---7---7---7---
D---4---4---4---4---5---5---5---5---9---9---9---9---8---8---8---8--
A------------------------------------------------------------------
E------------------------------------------------------------------

Refren

E-----------------------------------------------------------------
B-----------------------------------------------------------------
G--4---4---4---6---7---7---7---7----------------------------------
D---5---5---5---7---9---9---9---9---4---4---4---4---4---4---2-----
A------------------------------------5---5---5---5-------------4--
E----------------------------------------------------5---5---5----

Późniejszy refren jest grany tak:

E------------------------------------------------------------------
B------------------------------------------------------------------
G--4---4---4---6---7---7---0---0-----------------------------------
D---5---5---5---7---9---9-----------4---4---4---4---4---4----------
A---------------------------5---5----5---5---5---5----------7---4--
E----------------------------------------------------5---5----5----

Dodaj komentarz ...i/lub link do filmiku video

Zaloguj się do serwisu
Wszelkie materiały i wypowiedzi zamieszczone na www.chords.pl są własnością ich autorów.