Zacznij systematycznie uczyć się grać na gitarze razem ze stroną Moja nauka - będziesz miał/miała do niej dostęp po zalogowaniu się w serwisie

Halo to ja - Sexbomba

Opracował -a: 4struny,
Dodał -a: 4struny,
Redaktor: Tomek Pietrzkowski,
Pochodzi z: http://www.chords.pl/
Data publikacji: 2019-08-18 14:00
 
Moja nauka


Ups, problem :-/
Zaloguj się Mój śpiewnik
w nagraniu zespół stroi się pół tonu niżej

intro
------4-------8------9--------11-------------------------------------------------------
-------5-------9-----10--------12------------------------------------------------------
----2s4------s8-----s9-------s11-------------------------------------------------------
---------------------------------------------------------------------------------------
---------------------------------------------------------------------------------------
---------------------------------------------------------------------------------------

zwrotka: E  cis  fis  H

refren: A  H  E
        A  H  E - tu przy wejściu na E pojawia się ta sama zagrywka co na początku/ patrz wyżej
        A  H  cis
        fis    i zejście po dźwiękach H  A  gis  Fis  na E

podczas grania zejścia po dźwiękach (j/w ) pojawia się na gitarze zejście

-------11--------9------------7----------5--------------------------------------------
---------12--------10-----------9------------7----------------------------------------
---9s 11-------s9----------s8----------s6---------------------------------------------
--------------------------------------------------------------------------------------
--------------------------------------------------------------------------------------
--------------------------------------------------------------------------------------

na końcu pojawiają się dźwięki:  E  A  E   i na końcu akcenty na F i E
Dodał: 4struny, 2019-08-18 14:10
Opracowania video z komentarzy

Dodaj komentarz ...i/lub link do filmiku video

Zaloguj się do serwisu
Wszelkie materiały i wypowiedzi zamieszczone na www.chords.pl są własnością ich autorów.