Zacznij systematycznie uczyć się grać na gitarze razem ze stroną Moja nauka - będziesz miał/miała do niej dostęp po zalogowaniu się w serwisie

Jaskółka uwięziona (tab) - Stan Borys

Opracował -a: nemezis96,
Dodał -a: nemezis96,
Redaktor: Tomek Pietrzkowski,
Data publikacji: 2010-08-06 11:53
 
Moja nauka


Ups, problem :-/
Zaloguj się Mój śpiewnik


Intro
E|--------------------------------------------------------------------------||
B|-2---2----2---2-----------------------------------------------------------||
G|---3--------3---3-5---5----5---5---3---3----3---3---1---1----1---1--------||
D|--------------------6--------6---6---4--------4---4---3--------3---3------||
A|--------------------------------------------------------------------------||
E|--------------------------------------------------------------------------||


Zwrotka:(w tle

     h   gis  Fis   f

E|---1----4----2----1--
B|---2----4----2----1--
G|---3----5----3----1--
D|---3----6----4----3--
A|---1----6----4----3--
E|---1----4----2----1--

Refren:

     h   Cis   f   Fis7  f  F

E|---1----4----1----2----1 (1) (dzwięk "F" gramy w ostatniej strofie refrenu zamiast "f" -
B|---2----3----1----2----1 (1)  - minimalna różnica)
G|---3----3----1----3----1 (2)
D|---3----3----3----2----3 (3)
A|---1----4----3----4----3 (3)
E|---1----4----1----2----1 (1)



opracowanie ze słuchu więc jakby co poprawiać mnie!!!

Dodaj komentarz ...i/lub link do filmiku video

Zaloguj się do serwisu
Ostatnie komentarze
1.
Tomassen
2010-08-13 11:03
Dwa pierwsze akordy: nie h, tylbo b i nie gis, tylko Gis. Nie dźwięk "F", tylko akord.
Wszelkie materiały i wypowiedzi zamieszczone na www.chords.pl są własnością ich autorów.