Zacznij systematycznie uczyć się grać na gitarze razem ze stroną Moja nauka - będziesz miał/miała do niej dostęp po zalogowaniu się w serwisie

Gdzie oni są - The Analogs

Dodał -a: azpunk,
Redaktor: Seba,
Data publikacji: 2016-02-08 13:58
 
Moja nauka


Ups, problem :-/
Zaloguj się Mój śpiewnik
Cover zespołu Cock Sparrer - Where Are They Now


Riff
-9-9-9-9-9-9-9-9--9--7--5----------------------------|
----------------------------7-7-7-7-7-7--7/10-10-9-9-|
-----------------------------------------------------|
-----------------------------------------------------|
-----------------------------------------------------|
-----------------------------------------------------|x2

Zwrotka
-------------------------------------------------|
-------------------------------------------------|
-------------6-6-6-6-6-6-7-7-7-7-7-7-9-9-9-9-9-9-|
-7-7-7-7-7-7-6-6-6-6-6-6-7-7-7-7-7-7-9-9-9-9-9-9-|
-7-7-7-7-7-7-4-4-4-4-4-4-5-5-5-5-5-5-7-7-7-7-7-7-|
-5-5-5-5-5-5-------------------------------------|x2

-----------------------|    ---------------------------------|
-----------------------|    ---------------------------------|
-7-7-7-7-7-7-9-9-9-9-9-|    -7-7-7-7-7-7-7-7-9-9-9-9-9-9-9-9-|
-7-7-7-7-7-7-9-9-9-9-9-|    -7-7-7-7-7-7-7-7-9-9-9-9-9-9-9-9-|
-5-5-5-5-5-5-7-7-7-7-7-|    -5-5-5-5-5-5-5-5-7-7-7-7-7-7-7-7-|
-----------------------|x2  ---------------------------------|

Refren
---------------------|    -----------------|
---------------------|    -----------------|
-----------7-7-7-7-7-|    -9-9-9-9-9-9-9-9-|
-7-7-7-7-7-7-7-7-7-7-|    -9-9-9-9-9-9-9-9-|
-7-7-7-7-7-5-5-5-5-5-|    -7-7-7-7-7-7-7-7-|
-5-5-5-5-5-----------|x3  -----------------|

Przejście
---------------------|    -----------------|
---------------------|    -----------------|
-7-7-7-7-7-----------|    -9-9-9-9-9-9-9-9-|
-7-7-7-7-7-7-7-7-7-7-|    -9-9-9-9-9-9-9-9-|
-5-5-5-5-5-7-7-7-7-7-|    -7-7-7-7-7-7-7-7-|
-----------5-5-5-5-5-|x3  -----------------|

Dodaj komentarz ...i/lub link do filmiku video

Zaloguj się do serwisu
Wszelkie materiały i wypowiedzi zamieszczone na www.chords.pl są własnością ich autorów.