Zacznij systematycznie uczyć się grać na gitarze razem ze stroną Moja nauka - będziesz miał/miała do niej dostęp po zalogowaniu się w serwisie

Policja goni mnie - The Analogs

Dodał -a: azpunk,
Redaktor: Tomek Pietrzkowski,
Data publikacji: 2019-01-22 23:10
 
Moja nauka


Ups, problem :-/
Zaloguj się Mój śpiewnik
cover The Clash - Police on my back

Cały czas leci motyw

D G

potem

A G

grane power chordami odpowiednio tłumione

druga gitara gra-3

---2---2---2---2---2---
-----3---3---3---3---3-
-----------------------
-----------------------
-----------------------
-----------------------
potem
-----------------------
---3---3---3---3---3---
-----2---2---2---2---2-
-----------------------
-----------------------
-----------------------
-----------------------
Dodał: azpunk, 2019-01-22 23:10
Opracowania video z komentarzy

Dodaj komentarz ...i/lub link do filmiku video

Zaloguj się do serwisu
Wszelkie materiały i wypowiedzi zamieszczone na www.chords.pl są własnością ich autorów.