Zacznij systematycznie uczyć się grać na gitarze razem ze stroną Moja nauka - będziesz miał/miała do niej dostęp po zalogowaniu się w serwisie

Someone Who Cares - Three Days Grace

Dodał -a: redczopol,
Redaktor: Tomek Pietrzkowski,
Pochodzi z: https://tabs.ultimate-guitar.com/tab/three_days_grace/someone_who_cares_tabs_875351
Data publikacji: 2019-05-12 19:18
 
Moja nauka


Ups, problem :-/
Zaloguj się Mój śpiewnik
Tuning: Drop D (D A D G B E)

Intro

Guitar 1:
E||--------------------------------|
B||--------------------------------|
G||-------10------8----------------| x3
D||-1--3--x--1-3--x--1-3-3---------|
A||-1--3--8--1-3--6--1-3-3--3b4r3--|
D||-1--3-----1-3-----1-3-3---------|


E||----------------|
B||----------------|
G||-------10----6--|
D||-1--3--x--1--6--|
A||-1--3--8--1--4--|
D||-1--3-----1-----|



Verse
Guitar 2:
E||-----------------------------------------------------------------------------|
B||----------4----------4-3----------------4-------------3-----------4-3--------|
G||--------5----------5------5-----------5-------------3-----------5------5-----|
D||-3---6----------5--------------------------6-----------------5-----------5---|
A||--------------3-------------------6----------6----5--------3-----------------|
D||-------------------------------6----------------5----------------------------|


E||-----------------------------------------------------------------------------|
B||----------4----------4-3-----------------4-------------3-----------3---------|
G||--------5----------5------5------------5-------------3-----------3---3-------|
D||-3---6----------5-----------5---------------6-----------------3---------3----|
A||--------------3--------------------6----------6----5--------1-------------1--|
D||--------------------------------6----------------5---------------------------|



Pre-Chorus
Guitar 2:
E||----5------------------------------------------|
B||--6---6----------6----------8----------8-------|
G||--------7------7---7------7---7------7---7-----| x2
D||-------------8-------8----------5----------5---|
A||-----------------------------------------------|
D||-----------------------------------------------|


E||----5------------------------------------------|
B||--6---6----------6----------8--------------8---|
G||--------7------7---7------7---7----------7-----|
D||-------------8-------8----------5------5-------|
A||-----------------------------------------------|
D||-----------------------------------------------|



Chorus
Guitar 1/2:
E||---------------------------------------------------------------|
B||---------------------------------------------------------------|
G||----------------3--3-3-3-3-3-3-5--5-5-5-5-5-5--5-5--------3-2--|
D||-0--0-0-0-0-0-0-3--3-3-3-3-3-3-5--5-5-5-5-5-5--5-5---3-2-------|
A||-0--0-0-0-0-0-0-1--1-1-1-1-1-1-3--3-3-3-3-3-3--3-3-------------|
D||-0--0-0-0-0-0-0------------------------------------------------|


E||---------------------------------------------------------------|
B||---------------------------------------------------------------|
G||----------------3--3-3-3-3-3-3-5--5-5-5-5-5-5-5--5-5-5-5-5-5---|
D||-0--0-0-0-0-0-0-3--3-3-3-3-3-3-5--5-5-5-5-5-5-5--5-5-5-5-5-5---|
A||-0--0-0-0-0-0-0-1--1-1-1-1-1-1-3--3-3-3-3-3-3-3--3-3-3-3-3-3---|
D||-0--0-0-0-0-0-0------------------------------------------------|



Verse
Guitar 2:
E||-----------------------------------------------------------------------------|
B||----------4----------4-3-----------------4-------------3-----------3---------|
G||--------5----------5------5------------5-------------3-----------3---3-------|
D||-3---6----------5-----------5---------------6-----------------3---------3----|
A||--------------3--------------------6----------6----5--------1-------------1--|
D||--------------------------------6----------------5---------------------------|



Chorus
Guitar 1/2:
E||---------------------------------------------------------------|
B||---------------------------------------------------------------|
G||----------------3--3-3-3-3-3-3-5--5-5-5-5-5-5--5-5--------3-2--| x4
D||-0--0-0-0-0-0-0-3--3-3-3-3-3-3-5--5-5-5-5-5-5--5-5---3-2-------|
A||-0--0-0-0-0-0-0-1--1-1-1-1-1-1-3--3-3-3-3-3-3--3-3-------------|
D||-0--0-0-0-0-0-0------------------------------------------------|



Bridge
Guitar 1:
E||------------------------------|-----------------------------|
B||------------------------------|-----------------------------|
G||------------------------------|-----------------------------|
D||------------------------------|-----------------------------|
A||-3h5-3h5-5--3h5-3h5-5--3h5-5--|--3h5-3h5-5--3h5-3h5-5--3h5--|
D||------------------------------|-----------------------------|


E||-----------------------------------|-----------------------------------|
B||---------3----------3------3-------|-----------------------------------|
G||-------------------------------x2--|---------5----------5------5---x2--|
D||-----------------------------------|-----------------------------------|
A||-3h5-3h5----3h5-3h5----3h5---------|-3h5-3h5----3h5-3h5----3h5---------|
D||-----------------------------------|-----------------------------------|


E||-----------------------------------|-----------------------------------|
B||-----------------------------------|-----------------------------------|
G||---------3----------3------3-------|---------5----------5------5-------|            x2
D||-----------------------------------|-----------------------------------|           /
A||-3h5-3h5----3h5-3h5----3h5---------|-3h5-3h5----3h5-3h5----3h5---------|          /
D||-----------------------------------|-----------------------------------|         /
                                                                                   /
                                                                                  /
E||-----------------------------------|                                          /
B||---------3----------3------3-------|                                         /
G||-------------------------------x2--| (Do not repeat)                        /
D||-----------------------------------|                                       /
A||-3h5-3h5----3h5-3h5----3h5---------|                                      /
D||-----------------------------------|                                     /



Guitar 2 (Listen for when to come in):
E||-----------------------------------|-----------------------------------|
B||-----------------------------------|-----------------------------------|
G||-----------------------------------|-----------------------------------|
D||---------2----------2------2---x2--|---------3----------3------3-------|
A||-3h5-3h5----3h5-3h5----3h5---------|-3h5-3h5----3h5-3h5----3h5---------|
D||-----------------------------------|-----------------------------------|


E||-----------------------------------|
B||-----------------------------------|
G||-----------------------------------|
D||---------2----------2------2-------|
A||-3h5-3h5----3h5-3h5----3h5---------|
D||-----------------------------------|


Guitar 1/2:
E||-------------------------------------|
B||-------------------------------------|
G||-------------------------------------|
D||-5-5-5-5-5-5-5-5-5-5-5-5-5-5-5-5-5--|
A||-5-5-5-5-5-5-5-5-5-5-5-5-5-5-5-5-5--|
D||-5-5-5-5-5-5-5-5-5-5-5-5-5-5-5-5-5--|



Chorus
Guitar 1:
E||-----------------------------------------------------------------|
B||-----------------------------------------------------------------|
G||----------------6--6-6-6-6-6-6-8--8-8-8-8-8-8-8--8-8--------6-5--| x3
D||-3--3-3-3-3-3-3-6--6-6-6-6-6-6-8--8-8-8-8-8-8-8--8-8---6-5-------|
A||-3--3-3-3-3-3-3-4--4-4-4-4-4-4-6--6-6-6-6-6-6-6--6-6-------------|
D||-3--3-3-3-3-3-3--------------------------------------------------|


E||--------------------------------------------------|
B||--------------------------------------------------|
G||----------------6--6-6-6-6-6-6-8--8-8-8-8-8-8-8---|
D||-3--3-3-3-3-3-3-6--6-6-6-6-6-6-8--8-8-8-8-8-8-8---|
A||-3--3-3-3-3-3-3-4--4-4-4-4-4-4-6--6-6-6-6-6-6-6---|
D||-3--3-3-3-3-3-3-----------------------------------|


Guitar 2:
E||-------------------------------------------------------------------|
B||-----------------------4-4-4-4-4-6-6-6-----------4-4-4-4-----------|
G||-------------3-3-5-5-5-----------------3-3-3-3-3--------------6-5--| x3
D||-3-3-3-3-3-3----------------------------------------------6-5------|
A||-------------------------------------------------------------------|
D||-------------------------------------------------------------------|


E||----------------------------------------------------|
B||-----------------------4-4-4-4-4-6-6-6--------------|
G||-------------3-3-5-5-5-----------------3-3-3-3-3-3--|
D||-3-3-3-3-3-3----------------------------------------|
A||----------------------------------------------------|
D||----------------------------------------------------|


utro
Guitar 1:
E||--------------------------------|-------------------|
B||--------------------------------|-------------------|
G||-------10------8----------------|-------10----6-----|
D||-1--3--x--1-3--x--1-3-3---------|-1--3--x--1--6-----|
A||-1--3--8--1-3--6--1-3-3--3b4r3--|-1--3--8--1--4-----|
D||-1--3-----1-3-----1-3-3---------|-1--3-----1--------|
Dodał: redczopol, 2019-05-12 19:21
Opracowania video z komentarzy

Dodaj komentarz ...i/lub link do filmiku video

Zaloguj się do serwisu
Wszelkie materiały i wypowiedzi zamieszczone na www.chords.pl są własnością ich autorów.