Zacznij systematycznie uczyć się grać na gitarze razem ze stroną Moja nauka - będziesz miał/miała do niej dostęp po zalogowaniu się w serwisie

7 (tab) - T.Love

Opracowali: dasiobasik, michicybo,
Dodali: dasiobasik, michicybo,
Redaktor: praz,
Pochodzi z: http://www.chords.pl/
Data publikacji: 2016-12-12 20:31
 
Moja nauka


Ups, problem :-/
Zaloguj się Mój śpiewnik


Zwrotka:  b  Gis  Cis2
ostatni wers:  b  Gis  Fis

Przejście:  Fis  Cis  Gis

Refren:  b  Gis  Cis2

 (wstęp)

G|-----------6-66------|
D|---8-8-6-6--6--------|
A|---------------------|   4x
E|---------------------|

      (zwrotka)

G|---------------------|
D|---------------------|
A|------------4-44-----|    7x
E|----6-6-4-4--4-------|

G|---------------------|
D|---------------------|
A|---------------------|
E|----6-6-4-4-22-222---|

G|---------------------|
D|---------------------|
A|------4--------------|    3x
E|---22--4444----------|

         (Refren/Solo)


Bass tab dodany przez użytkownika dasiobasik
Dodał: michicybo, 2017-02-14 09:12
Opracowania video z komentarzy

Dodaj komentarz ...i/lub link do filmiku video

Zaloguj się do serwisu
Wszelkie materiały i wypowiedzi zamieszczone na www.chords.pl są własnością ich autorów.