Zacznij systematycznie uczyć się grać na gitarze razem ze stroną Moja nauka - będziesz miał/miała do niej dostęp po zalogowaniu się w serwisie

The Raven - Turbo

Opracował -a: ksobkowicz,
Dodał -a: ksobkowicz,
Redaktor: Tomek Pietrzkowski,
Pochodzi z: http://www.chords.pl/
Data publikacji: 2018-05-06 10:48
 
Moja nauka


Ups, problem :-/
Zaloguj się Mój śpiewnik


INTRO

|-----------------|--------------|---------------|--------------|
|-----------------|--------------|---------------|--------------|
|-----------------|--------------|---------------|-----0--------|
|----2/4-4h5-4----|-----2-4-5-4--|---2-4-4h5-4-0-|----0--0------|
|--2-------------5|---2----------|--2------------|--3-----3-----|
|0----------------|0-------------|0--------------|1-------------|


plus na końcu intra

|--------------------|
|--------------------|
|--------------------|
|-2----x-3-3-3-------|
|-2----x-3-3-3-------|
|-0----x-1-1-1-------|


RIFF

|----------------------------------------------|
|----------------------------------------------|
|--9 9 9 9/-12 12 12/-8-8-8-8------------------|
|-------------------------------x2-3-----------|
|--7 7 7 7/-10-10-10/-6-6-6-6---x2-3-3-3-------|
|-------------------------------x0-1-1-1-------|

RIFF 2

|-----------------|--------------|--------------|------------------|
|-----------------|--------------|--------------|------------------|
|-----------------|--------------|--------------|------------------|
|----2/4-4h5-4----|-----2-4-5-4--|---2-4-4h5-4-0|--3-x-3-x-3-------|
|--2-------------5|---2----------|--2-----------|2-3-x-3-x-3-------|
|0----------------|0-------------|0-------------|0-1-x-1-x-1-------|
Dodał: ksobkowicz, 2018-05-06 10:49
Opracowania video z komentarzy

Dodaj komentarz ...i/lub link do filmiku video

Zaloguj się do serwisu
Wszelkie materiały i wypowiedzi zamieszczone na www.chords.pl są własnością ich autorów.